  0
SECTION
  2
HEADER
  9
$ACADVER
  1
AC1015
  9
$ACADMAINTVER
 70
     6
  9
$DWGCODEPAGE
  3
ANSI_1254
  9
$INSBASE
 10
0.0
 20
0.0
 30
0.0
  9
$EXTMIN
 10
0.0
 20
0.0
 30
0.0
  9
$EXTMAX
 10
279.4
 20
215.9
 30
0.0
  9
$LIMMIN
 10
0.0
 20
0.0
  9
$LIMMAX
 10
279.4
 20
215.9
  9
$ORTHOMODE
 70
     0
  9
$REGENMODE
 70
     1
  9
$FILLMODE
 70
     1
  9
$QTEXTMODE
 70
     0
  9
$MIRRTEXT
 70
     1
  9
$LTSCALE
 40
1.0
  9
$ATTMODE
 70
     1
  9
$TEXTSIZE
 40
3.5
  9
$TRACEWID
 40
1.0
  9
$TEXTSTYLE
  7
Standard
  9
$CLAYER
  8
0
  9
$CELTYPE
  6
ByLayer
  9
$CECOLOR
 62
   256
  9
$CELTSCALE
 40
1.0
  9
$DISPSILH
 70
     0
  9
$DIMSCALE
 40
1.0
  9
$DIMASZ
 40
3.5
  9
$DIMEXO
 40
1.0
  9
$DIMDLI
 40
3.75
  9
$DIMRND
 40
0.0
  9
$DIMDLE
 40
0.0
  9
$DIMEXE
 40
1.0
  9
$DIMTP
 40
0.0
  9
$DIMTM
 40
0.0
  9
$DIMTXT
 40
3.5
  9
$DIMCEN
 40
2.5
  9
$DIMTSZ
 40
0.0
  9
$DIMTOL
 70
     0
  9
$DIMLIM
 70
     0
  9
$DIMTIH
 70
     1
  9
$DIMTOH
 70
     1
  9
$DIMSE1
 70
     0
  9
$DIMSE2
 70
     0
  9
$DIMTAD
 70
     1
  9
$DIMZIN
 70
     0
  9
$DIMBLK
  1

  9
$DIMASO
 70
     1
  9
$DIMSHO
 70
     1
  9
$DIMPOST
  1

  9
$DIMAPOST
  1

  9
$DIMALT
 70
     0
  9
$DIMALTD
 70
     3
  9
$DIMALTF
 40
0.0393700787
  9
$DIMLFAC
 40
1.0
  9
$DIMTOFL
 70
     1
  9
$DIMTVP
 40
0.0
  9
$DIMTIX
 70
     0
  9
$DIMSOXD
 70
     0
  9
$DIMSAH
 70
     0
  9
$DIMBLK1
  1

  9
$DIMBLK2
  1

  9
$DIMSTYLE
  2
ISO-25
  9
$DIMCLRD
 70
     0
  9
$DIMCLRE
 70
     0
  9
$DIMCLRT
 70
     0
  9
$DIMTFAC
 40
1.0
  9
$DIMGAP
 40
1.524
  9
$DIMJUST
 70
     0
  9
$DIMSD1
 70
     0
  9
$DIMSD2
 70
     0
  9
$DIMTOLJ
 70
     0
  9
$DIMTZIN
 70
     0
  9
$DIMALTZ
 70
     0
  9
$DIMALTTZ
 70
     0
  9
$DIMUPT
 70
     0
  9
$DIMDEC
 70
     2
  9
$DIMTDEC
 70
     2
  9
$DIMALTU
 70
     2
  9
$DIMALTTD
 70
     3
  9
$DIMTXSTY
  7
Standard
  9
$DIMAUNIT
 70
     0
  9
$DIMADEC
 70
     2
  9
$DIMALTRND
 40
0.0
  9
$DIMAZIN
 70
     0
  9
$DIMDSEP
 70
    44
  9
$DIMATFIT
 70
     3
  9
$DIMFRAC
 70
     0
  9
$DIMLDRBLK
  1

  9
$DIMLUNIT
 70
     2
  9
$DIMLWD
 70
    -2
  9
$DIMLWE
 70
    -2
  9
$DIMTMOVE
 70
     0
  9
$LUNITS
 70
     2
  9
$LUPREC
 70
     2
  9
$SKETCHINC
 40
1.0
  9
$FILLETRAD
 40
10.0
  9
$AUNITS
 70
     0
  9
$AUPREC
 70
     2
  9
$MENU
  1
.
  9
$ELEVATION
 40
0.0
  9
$PELEVATION
 40
0.0
  9
$THICKNESS
 40
0.0
  9
$LIMCHECK
 70
     0
  9
$CHAMFERA
 40
0.0
  9
$CHAMFERB
 40
0.0
  9
$CHAMFERC
 40
0.0
  9
$CHAMFERD
 40
0.0
  9
$SKPOLY
 70
     0
  9
$TDCREATE
 40
2459741.588665185
  9
$TDUCREATE
 40
2459741.463665185
  9
$TDUPDATE
 40
2459741.588666782
  9
$TDUUPDATE
 40
2459741.463666782
  9
$TDINDWG
 40
0.0000000116
  9
$TDUSRTIMER
 40
0.0000000116
  9
$USRTIMER
 70
     1
  9
$ANGBASE
 50
0.0
  9
$ANGDIR
 70
     0
  9
$PDMODE
 70
     0
  9
$PDSIZE
 40
-1.0
  9
$PLINEWID
 40
0.0
  9
$SPLFRAME
 70
     0
  9
$SPLINETYPE
 70
     6
  9
$SPLINESEGS
 70
     8
  9
$HANDSEED
  5
122
  9
$SURFTAB1
 70
     6
  9
$SURFTAB2
 70
     6
  9
$SURFTYPE
 70
     6
  9
$SURFU
 70
     6
  9
$SURFV
 70
     6
  9
$UCSBASE
  2

  9
$UCSNAME
  2

  9
$UCSORG
 10
0.0
 20
0.0
 30
0.0
  9
$UCSXDIR
 10
1.0
 20
0.0
 30
0.0
  9
$UCSYDIR
 10
0.0
 20
1.0
 30
0.0
  9
$UCSORTHOREF
  2

  9
$UCSORTHOVIEW
 70
     0
  9
$UCSORGTOP
 10
0.0
 20
0.0
 30
0.0
  9
$UCSORGBOTTOM
 10
0.0
 20
0.0
 30
0.0
  9
$UCSORGLEFT
 10
0.0
 20
0.0
 30
0.0
  9
$UCSORGRIGHT
 10
0.0
 20
0.0
 30
0.0
  9
$UCSORGFRONT
 10
0.0
 20
0.0
 30
0.0
  9
$UCSORGBACK
 10
0.0
 20
0.0
 30
0.0
  9
$PUCSBASE
  2

  9
$PUCSNAME
  2

  9
$PUCSORG
 10
0.0
 20
0.0
 30
0.0
  9
$PUCSXDIR
 10
1.0
 20
0.0
 30
0.0
  9
$PUCSYDIR
 10
0.0
 20
1.0
 30
0.0
  9
$PUCSORTHOREF
  2

  9
$PUCSORTHOVIEW
 70
     0
  9
$PUCSORGTOP
 10
0.0
 20
0.0
 30
0.0
  9
$PUCSORGBOTTOM
 10
0.0
 20
0.0
 30
0.0
  9
$PUCSORGLEFT
 10
0.0
 20
0.0
 30
0.0
  9
$PUCSORGRIGHT
 10
0.0
 20
0.0
 30
0.0
  9
$PUCSORGFRONT
 10
0.0
 20
0.0
 30
0.0
  9
$PUCSORGBACK
 10
0.0
 20
0.0
 30
0.0
  9
$USERI1
 70
     0
  9
$USERI2
 70
     0
  9
$USERI3
 70
     0
  9
$USERI4
 70
     0
  9
$USERI5
 70
     0
  9
$USERR1
 40
0.0
  9
$USERR2
 40
0.0
  9
$USERR3
 40
0.0
  9
$USERR4
 40
0.0
  9
$USERR5
 40
0.0
  9
$WORLDVIEW
 70
     1
  9
$SHADEDGE
 70
     3
  9
$SHADEDIF
 70
    70
  9
$TILEMODE
 70
     1
  9
$MAXACTVP
 70
    64
  9
$PINSBASE
 10
0.0
 20
0.0
 30
0.0
  9
$PLIMCHECK
 70
     0
  9
$PEXTMIN
 10
1.0000000000E+20
 20
1.0000000000E+20
 30
1.0000000000E+20
  9
$PEXTMAX
 10
-1.0000000000E+20
 20
-1.0000000000E+20
 30
-1.0000000000E+20
  9
$PLIMMIN
 10
0.0
 20
0.0
  9
$PLIMMAX
 10
420.0
 20
297.0
  9
$UNITMODE
 70
     0
  9
$VISRETAIN
 70
     1
  9
$PLINEGEN
 70
     0
  9
$PSLTSCALE
 70
     1
  9
$TREEDEPTH
 70
  3020
  9
$CMLSTYLE
  2
Standard
  9
$CMLJUST
 70
     0
  9
$CMLSCALE
 40
20.0
  9
$PROXYGRAPHICS
 70
     1
  9
$MEASUREMENT
 70
     1
  9
$CELWEIGHT
370
    -1
  9
$ENDCAPS
280
     0
  9
$JOINSTYLE
280
     0
  9
$LWDISPLAY
290
     1
  9
$INSUNITS
 70
     4
  9
$HYPERLINKBASE
  1

  9
$STYLESHEET
  1

  9
$XEDIT
290
     1
  9
$CEPSNTYPE
380
     0
  9
$PSTYLEMODE
290
     1
  9
$FINGERPRINTGUID
  2
{72c57ec5-1363-4343-977a-7f72bb9d1c4b}
  9
$VERSIONGUID
  2
{FAEB1C32-E019-11D5-929B-00C0DF256EC4}
  9
$EXTNAMES
290
     1
  9
$PSVPSCALE
 40
0.0
  9
$OLESTARTUP
290
     0
  0
ENDSEC
  0
SECTION
  2
CLASSES
  0
CLASS
  1
ACDBDICTIONARYWDFLT
  2
AcDbDictionaryWithDefault
  3
ObjectDBX Classes
 90
        0
280
     0
281
     0
  0
CLASS
  1
VISUALSTYLE
  2
AcDbVisualStyle
  3
ObjectDBX Classes
 90
     4095
280
     0
281
     0
  0
CLASS
  1
MATERIAL
  2
AcDbMaterial
  3
ObjectDBX Classes
 90
     1153
280
     0
281
     0
  0
CLASS
  1
SCALE
  2
AcDbScale
  3
ObjectDBX Classes
 90
     1153
280
     0
281
     0
  0
CLASS
  1
TABLESTYLE
  2
AcDbTableStyle
  3
ObjectDBX Classes
 90
     4095
280
     0
281
     0
  0
CLASS
  1
MLEADERSTYLE
  2
AcDbMLeaderStyle
  3
ACDB_MLEADERSTYLE_CLASS
 90
     4095
280
     0
281
     0
  0
CLASS
  1
SUN
  2
AcDbSun
  3
SCENEOE
 90
     1153
280
     0
281
     0
  0
CLASS
  1
ACDBPLACEHOLDER
  2
AcDbPlaceHolder
  3
ObjectDBX Classes
 90
        0
280
     0
281
     0
  0
CLASS
  1
LAYOUT
  2
AcDbLayout
  3
ObjectDBX Classes
 90
        0
280
     0
281
     0
  0
ENDSEC
  0
SECTION
  2
TABLES
  0
TABLE
  2
VPORT
  5
8
330
0
100
AcDbSymbolTable
 70
     1
  0
VPORT
  5
29
330
8
100
AcDbSymbolTableRecord
100
AcDbViewportTableRecord
  2
*Active
 70
     0
 10
0.0
 20
0.0
 11
1.0
 21
1.0
 12
139.7
 22
107.95
 13
0.0
 23
0.0
 14
10.0
 24
10.0
 15
10.0
 25
10.0
 16
0.0
 26
0.0
 36
1.0
 17
0.0
 27
0.0
 37
0.0
 40
215.9
 41
1.2941176471
 42
50.0
 43
0.0
 44
0.0
 50
0.0
 51
0.0
 71
     0
 72
  2000
 73
     1
 74
     3
 75
     0
 76
     0
 77
     0
 78
     0
281
     0
 65
     1
110
0.0
120
0.0
130
0.0
111
1.0
121
0.0
131
0.0
112
0.0
122
1.0
132
0.0
 79
     0
146
0.0
  0
ENDTAB
  0
TABLE
  2
LTYPE
  5
5
330
0
100
AcDbSymbolTable
 70
     6
  0
LTYPE
  5
14
330
5
100
AcDbSymbolTableRecord
100
AcDbLinetypeTableRecord
  2
ByBlock
 70
     0
  3

 72
    65
 73
     0
 40
0.0
  0
LTYPE
  5
15
330
5
100
AcDbSymbolTableRecord
100
AcDbLinetypeTableRecord
  2
ByLayer
 70
     0
  3

 72
    65
 73
     0
 40
0.0
  0
LTYPE
  5
16
330
5
100
AcDbSymbolTableRecord
100
AcDbLinetypeTableRecord
  2
Continuous
 70
     0
  3
Solid line
 72
    65
 73
     0
 40
0.0
  0
LTYPE
  5
6E
330
5
100
AcDbSymbolTableRecord
100
AcDbLinetypeTableRecord
  2
HIDDEN
 70
     0
  3
Hidden __ __ __ __ __ __ __ __ __ __ __ __ __ __
 72
    65
 73
     2
 40
1.905
 49
1.27
 74
     0
 49
-0.635
 74
     0
  0
LTYPE
  5
6F
330
5
100
AcDbSymbolTableRecord
100
AcDbLinetypeTableRecord
  2
PHANTOM
 70
     0
  3
Phantom ______  __  __  ______  __  __  ______
 72
    65
 73
     6
 40
12.7
 49
6.35
 74
     0
 49
-1.27
 74
     0
 49
1.27
 74
     0
 49
-1.27
 74
     0
 49
1.27
 74
     0
 49
-1.27
 74
     0
  0
LTYPE
  5
70
330
5
100
AcDbSymbolTableRecord
100
AcDbLinetypeTableRecord
  2
CENTER
 70
     0
  3
Center ____ _ ____ _ ____ _ ____ _ ____ _ ____
 72
    65
 73
     4
 40
10.16
 49
6.35
 74
     0
 49
-1.27
 74
     0
 49
1.27
 74
     0
 49
-1.27
 74
     0
  0
LTYPE
  5
71
330
5
100
AcDbSymbolTableRecord
100
AcDbLinetypeTableRecord
  2
CENTERX2
 70
     0
  3
Center (2x) ________  __  ________  __  _____
 72
    65
 73
     4
 40
20.32
 49
12.7
 74
     0
 49
-2.54
 74
     0
 49
2.54
 74
     0
 49
-2.54
 74
     0
  0
LTYPE
  5
72
330
5
100
AcDbSymbolTableRecord
100
AcDbLinetypeTableRecord
  2
DOT2
 70
     0
  3
Dot (.5x) ........................................
 72
    65
 73
     2
 40
0.635
 49
0.0
 74
     0
 49
-0.635
 74
     0
  0
ENDTAB
  0
TABLE
  2
LAYER
  5
2
330
0
100
AcDbSymbolTable
 70
    17
  0
LAYER
  5
10
330
2
100
AcDbSymbolTableRecord
100
AcDbLayerTableRecord
  2
0
 70
     0
 62
     7
  6
Continuous
370
    -3
390
F
  0
LAYER
  5
73
330
2
100
AcDbSymbolTableRecord
100
AcDbLayerTableRecord
  2
FORMAT
 70
     0
 62
     7
  6
Continuous
370
    -3
390
F
  0
LAYER
  5
74
330
2
100
AcDbSymbolTableRecord
100
AcDbLayerTableRecord
  2
YARDIMCI_GEOMETRI
 70
     0
 62
    -6
  6
Continuous
290
     0
370
    -3
390
F
  0
LAYER
  5
75
330
2
100
AcDbSymbolTableRecord
100
AcDbLayerTableRecord
  2
SAYFA_CERCEVESI
 70
     0
 62
     7
  6
Continuous
370
    25
390
F
  0
LAYER
  5
76
330
2
100
AcDbSymbolTableRecord
100
AcDbLayerTableRecord
  2
ANTET
 70
     0
 62
     7
  6
Continuous
370
    -3
390
F
  0
LAYER
  5
77
330
2
100
AcDbSymbolTableRecord
100
AcDbLayerTableRecord
  2
OLCU
 70
     0
 62
   150
  6
Continuous
370
    -3
390
F
  0
LAYER
  5
78
330
2
100
AcDbSymbolTableRecord
100
AcDbLayerTableRecord
  2
METIN
 70
     0
 62
    96
  6
Continuous
370
    -3
390
F
  0
LAYER
  5
79
330
2
100
AcDbSymbolTableRecord
100
AcDbLayerTableRecord
  2
BALON
 70
     0
 62
     5
  6
Continuous
370
    -3
390
F
  0
LAYER
  5
7A
330
2
100
AcDbSymbolTableRecord
100
AcDbLayerTableRecord
  2
VURGU
 70
     0
 62
     7
  6
Continuous
370
    -3
390
F
  0
LAYER
  5
7B
330
2
100
AcDbSymbolTableRecord
100
AcDbLayerTableRecord
  2
SILIK
 70
     0
 62
     7
  6
Continuous
370
    -3
390
F
  0
LAYER
  5
7C
330
2
100
AcDbSymbolTableRecord
100
AcDbLayerTableRecord
  2
MODEL
 70
     0
 62
     7
  6
Continuous
370
    -3
390
F
  0
LAYER
  5
7D
330
2
100
AcDbSymbolTableRecord
100
AcDbLayerTableRecord
  2
DETAYLANDıRMA
 70
     0
 62
   190
  6
Continuous
370
    -3
390
F
  0
LAYER
  5
7E
330
2
100
AcDbSymbolTableRecord
100
AcDbLayerTableRecord
  2
TOLERANS
 70
     0
 62
   230
  6
Continuous
370
    -3
390
F
  0
LAYER
  5
7F
330
2
100
AcDbSymbolTableRecord
100
AcDbLayerTableRecord
  2
MERKEZ_CIZGILERI
 70
     0
 62
    30
  6
Continuous
370
    -3
390
F
  0
LAYER
  5
80
330
2
100
AcDbSymbolTableRecord
100
AcDbLayerTableRecord
  2
KESIT-DETAY_CIZGILERI
 70
     0
 62
     7
  6
Continuous
370
    -3
390
F
  0
LAYER
  5
81
330
2
100
AcDbSymbolTableRecord
100
AcDbLayerTableRecord
  2
\U+041E\U+0421\U+0415\U+0412\U+042B\U+0415
 70
     0
 62
     7
  6
Continuous
370
    -3
390
F
  0
LAYER
  5
82
330
2
100
AcDbSymbolTableRecord
100
AcDbLayerTableRecord
  2
\U+0412\U+041E\U+0414\U+042F\U+041D\U+042B\U+0415_\U+0417\U+041D\U+0410\U+041A\U+0418
 70
     0
 62
    11
  6
Continuous
370
    -3
390
F
  0
ENDTAB
  0
TABLE
  2
STYLE
  5
3
330
0
100
AcDbSymbolTable
 70
     1
  0
STYLE
  5
11
330
3
100
AcDbSymbolTableRecord
100
AcDbTextStyleTableRecord
  2
Standard
 70
     0
 40
0.0
 41
1.0
 50
0.0
 71
     0
 42
3.5
  3
txt
  4

  0
ENDTAB
  0
TABLE
  2
VIEW
  5
6
330
0
100
AcDbSymbolTable
 70
     0
  0
ENDTAB
  0
TABLE
  2
UCS
  5
7
330
0
100
AcDbSymbolTable
 70
     0
  0
ENDTAB
  0
TABLE
  2
APPID
  5
9
330
0
100
AcDbSymbolTable
 70
     1
  0
APPID
  5
12
330
9
100
AcDbSymbolTableRecord
100
AcDbRegAppTableRecord
  2
ACAD
 70
     0
  0
ENDTAB
  0
TABLE
  2
DIMSTYLE
  5
A
330
0
100
AcDbSymbolTable
 70
     1
100
AcDbDimStyleTable
  0
DIMSTYLE
105
27
330
A
100
AcDbSymbolTableRecord
100
AcDbDimStyleTableRecord
  2
ISO-25
 70
     0
 41
2.5
 42
0.625
 43
3.75
 44
1.25
 73
     0
 74
     0
 77
     1
 78
     8
140
2.5
141
2.5
143
0.0393700787
147
0.625
171
     3
172
     1
178
     0
271
     2
272
     2
274
     3
278
    44
283
     0
284
     8
340
11
  0
ENDTAB
  0
TABLE
  2
BLOCK_RECORD
  5
1
330
0
100
AcDbSymbolTable
 70
     6
  0
BLOCK_RECORD
  5
1F
330
1
100
AcDbSymbolTableRecord
100
AcDbBlockTableRecord
  2
*Model_Space
340
22
  0
BLOCK_RECORD
  5
1B
330
1
100
AcDbSymbolTableRecord
100
AcDbBlockTableRecord
  2
*Paper_Space
340
1E
  0
BLOCK_RECORD
  5
23
330
1
100
AcDbSymbolTableRecord
100
AcDbBlockTableRecord
  2
*Paper_Space0
340
26
  0
BLOCK_RECORD
  5
8F
330
1
100
AcDbSymbolTableRecord
100
AcDbBlockTableRecord
  2
SW_CENTERMARKSYMBOL_0
340
0
102
{BLKREFS
331
9A
102
}
  0
BLOCK_RECORD
  5
9B
330
1
100
AcDbSymbolTableRecord
100
AcDbBlockTableRecord
  2
SW_CENTERMARKSYMBOL_1
340
0
102
{BLKREFS
331
A6
102
}
  0
BLOCK_RECORD
  5
A7
330
1
100
AcDbSymbolTableRecord
100
AcDbBlockTableRecord
  2
SW_CENTERMARKSYMBOL_2
340
0
102
{BLKREFS
331
B2
102
}
  0
BLOCK_RECORD
  5
B3
330
1
100
AcDbSymbolTableRecord
100
AcDbBlockTableRecord
  2
SW_CENTERMARKSYMBOL_3
340
0
102
{BLKREFS
331
BE
102
}
  0
BLOCK_RECORD
  5
BF
330
1
100
AcDbSymbolTableRecord
100
AcDbBlockTableRecord
  2
SW_CENTERMARKSYMBOL_4
340
0
102
{BLKREFS
331
CA
102
}
  0
ENDTAB
  0
ENDSEC
  0
SECTION
  2
BLOCKS
  0
BLOCK
  5
20
330
1F
100
AcDbEntity
  8
0
100
AcDbBlockBegin
  2
*Model_Space
 70
     0
 10
0.0
 20
0.0
 30
0.0
  3
*Model_Space
  1

  0
ENDBLK
  5
21
330
1F
100
AcDbEntity
  8
0
100
AcDbBlockEnd
  0
BLOCK
  5
1C
330
1B
100
AcDbEntity
 67
     1
  8
0
100
AcDbBlockBegin
  2
*Paper_Space
 70
     0
 10
0.0
 20
0.0
 30
0.0
  3
*Paper_Space
  1

  0
ENDBLK
  5
1D
330
1B
100
AcDbEntity
 67
     1
  8
0
100
AcDbBlockEnd
  0
BLOCK
  5
24
330
23
100
AcDbEntity
  8
0
100
AcDbBlockBegin
  2
*Paper_Space0
 70
     0
 10
0.0
 20
0.0
 30
0.0
  3
*Paper_Space0
  1

  0
ENDBLK
  5
25
330
23
100
AcDbEntity
  8
0
100
AcDbBlockEnd
  0
BLOCK
  5
90
330
8F
100
AcDbEntity
  8
0
100
AcDbBlockBegin
  2
SW_CENTERMARKSYMBOL_0
 70
     0
 10
0.0
 20
0.0
 30
0.0
  3
SW_CENTERMARKSYMBOL_0
  1

  0
LINE
  5
92
330
8F
100
AcDbEntity
  8
FORMAT
 62
     0
100
AcDbLine
 10
0.0
 20
0.0
 30
0.0
 11
0.0
 21
2.5
 31
0.0
  0
LINE
  5
93
330
8F
100
AcDbEntity
  8
FORMAT
 62
     0
100
AcDbLine
 10
0.0
 20
0.0
 30
0.0
 11
-2.5
 21
0.0
 31
0.0
  0
LINE
  5
94
330
8F
100
AcDbEntity
  8
FORMAT
 62
     0
100
AcDbLine
 10
0.0
 20
0.0
 30
0.0
 11
0.0
 21
-2.5
 31
0.0
  0
LINE
  5
95
330
8F
100
AcDbEntity
  8
FORMAT
 62
     0
100
AcDbLine
 10
0.0
 20
0.0
 30
0.0
 11
2.5
 21
0.0
 31
0.0
  0
LINE
  5
96
330
8F
100
AcDbEntity
  8
FORMAT
 62
     0
100
AcDbLine
 10
0.0
 20
5.0
 30
0.0
 11
0.0
 21
94.5
 31
0.0
  0
LINE
  5
97
330
8F
100
AcDbEntity
  8
FORMAT
 62
     0
100
AcDbLine
 10
-5.0
 20
0.0
 30
0.0
 11
-94.5
 21
0.0
 31
0.0
  0
LINE
  5
98
330
8F
100
AcDbEntity
  8
FORMAT
 62
     0
100
AcDbLine
 10
0.0
 20
-5.0
 30
0.0
 11
0.0
 21
-94.5
 31
0.0
  0
LINE
  5
99
330
8F
100
AcDbEntity
  8
FORMAT
 62
     0
100
AcDbLine
 10
5.0
 20
0.0
 30
0.0
 11
94.5
 21
0.0
 31
0.0
  0
ENDBLK
  5
91
330
8F
100
AcDbEntity
  8
0
100
AcDbBlockEnd
  0
BLOCK
  5
9C
330
9B
100
AcDbEntity
  8
0
100
AcDbBlockBegin
  2
SW_CENTERMARKSYMBOL_1
 70
     0
 10
0.0
 20
0.0
 30
0.0
  3
SW_CENTERMARKSYMBOL_1
  1

  0
LINE
  5
9E
330
9B
100
AcDbEntity
  8
FORMAT
 62
     0
100
AcDbLine
 10
0.0
 20
0.0
 30
0.0
 11
0.0
 21
2.5
 31
0.0
  0
LINE
  5
9F
330
9B
100
AcDbEntity
  8
FORMAT
 62
     0
100
AcDbLine
 10
0.0
 20
0.0
 30
0.0
 11
-2.5
 21
0.0
 31
0.0
  0
LINE
  5
A0
330
9B
100
AcDbEntity
  8
FORMAT
 62
     0
100
AcDbLine
 10
0.0
 20
0.0
 30
0.0
 11
0.0
 21
-2.5
 31
0.0
  0
LINE
  5
A1
330
9B
100
AcDbEntity
  8
FORMAT
 62
     0
100
AcDbLine
 10
0.0
 20
0.0
 30
0.0
 11
2.5
 21
0.0
 31
0.0
  0
LINE
  5
A2
330
9B
100
AcDbEntity
  8
FORMAT
 62
     0
100
AcDbLine
 10
0.0
 20
5.0
 30
0.0
 11
0.0
 21
12.5
 31
0.0
  0
LINE
  5
A3
330
9B
100
AcDbEntity
  8
FORMAT
 62
     0
100
AcDbLine
 10
-5.0
 20
0.0
 30
0.0
 11
-12.5
 21
0.0
 31
0.0
  0
LINE
  5
A4
330
9B
100
AcDbEntity
  8
FORMAT
 62
     0
100
AcDbLine
 10
0.0
 20
-5.0
 30
0.0
 11
0.0
 21
-12.5
 31
0.0
  0
LINE
  5
A5
330
9B
100
AcDbEntity
  8
FORMAT
 62
     0
100
AcDbLine
 10
5.0
 20
0.0
 30
0.0
 11
12.5
 21
0.0
 31
0.0
  0
ENDBLK
  5
9D
330
9B
100
AcDbEntity
  8
0
100
AcDbBlockEnd
  0
BLOCK
  5
A8
330
A7
100
AcDbEntity
  8
0
100
AcDbBlockBegin
  2
SW_CENTERMARKSYMBOL_2
 70
     0
 10
0.0
 20
0.0
 30
0.0
  3
SW_CENTERMARKSYMBOL_2
  1

  0
LINE
  5
AA
330
A7
100
AcDbEntity
  8
FORMAT
 62
     0
100
AcDbLine
 10
0.0
 20
0.0
 30
0.0
 11
0.0
 21
2.5
 31
0.0
  0
LINE
  5
AB
330
A7
100
AcDbEntity
  8
FORMAT
 62
     0
100
AcDbLine
 10
0.0
 20
0.0
 30
0.0
 11
-2.5
 21
0.0
 31
0.0
  0
LINE
  5
AC
330
A7
100
AcDbEntity
  8
FORMAT
 62
     0
100
AcDbLine
 10
0.0
 20
0.0
 30
0.0
 11
0.0
 21
-2.5
 31
0.0
  0
LINE
  5
AD
330
A7
100
AcDbEntity
  8
FORMAT
 62
     0
100
AcDbLine
 10
0.0
 20
0.0
 30
0.0
 11
2.5
 21
0.0
 31
0.0
  0
LINE
  5
AE
330
A7
100
AcDbEntity
  8
FORMAT
 62
     0
100
AcDbLine
 10
0.0
 20
5.0
 30
0.0
 11
0.0
 21
12.5
 31
0.0
  0
LINE
  5
AF
330
A7
100
AcDbEntity
  8
FORMAT
 62
     0
100
AcDbLine
 10
-5.0
 20
0.0
 30
0.0
 11
-12.5
 21
0.0
 31
0.0
  0
LINE
  5
B0
330
A7
100
AcDbEntity
  8
FORMAT
 62
     0
100
AcDbLine
 10
0.0
 20
-5.0
 30
0.0
 11
0.0
 21
-12.5
 31
0.0
  0
LINE
  5
B1
330
A7
100
AcDbEntity
  8
FORMAT
 62
     0
100
AcDbLine
 10
5.0
 20
0.0
 30
0.0
 11
12.5
 21
0.0
 31
0.0
  0
ENDBLK
  5
A9
330
A7
100
AcDbEntity
  8
0
100
AcDbBlockEnd
  0
BLOCK
  5
B4
330
B3
100
AcDbEntity
  8
0
100
AcDbBlockBegin
  2
SW_CENTERMARKSYMBOL_3
 70
     0
 10
0.0
 20
0.0
 30
0.0
  3
SW_CENTERMARKSYMBOL_3
  1

  0
LINE
  5
B6
330
B3
100
AcDbEntity
  8
FORMAT
 62
     0
100
AcDbLine
 10
0.0
 20
0.0
 30
0.0
 11
0.0
 21
2.5
 31
0.0
  0
LINE
  5
B7
330
B3
100
AcDbEntity
  8
FORMAT
 62
     0
100
AcDbLine
 10
0.0
 20
0.0
 30
0.0
 11
-2.5
 21
0.0
 31
0.0
  0
LINE
  5
B8
330
B3
100
AcDbEntity
  8
FORMAT
 62
     0
100
AcDbLine
 10
0.0
 20
0.0
 30
0.0
 11
0.0
 21
-2.5
 31
0.0
  0
LINE
  5
B9
330
B3
100
AcDbEntity
  8
FORMAT
 62
     0
100
AcDbLine
 10
0.0
 20
0.0
 30
0.0
 11
2.5
 21
0.0
 31
0.0
  0
LINE
  5
BA
330
B3
100
AcDbEntity
  8
FORMAT
 62
     0
100
AcDbLine
 10
0.0
 20
5.0
 30
0.0
 11
0.0
 21
12.5
 31
0.0
  0
LINE
  5
BB
330
B3
100
AcDbEntity
  8
FORMAT
 62
     0
100
AcDbLine
 10
-5.0
 20
0.0
 30
0.0
 11
-12.5
 21
0.0
 31
0.0
  0
LINE
  5
BC
330
B3
100
AcDbEntity
  8
FORMAT
 62
     0
100
AcDbLine
 10
0.0
 20
-5.0
 30
0.0
 11
0.0
 21
-12.5
 31
0.0
  0
LINE
  5
BD
330
B3
100
AcDbEntity
  8
FORMAT
 62
     0
100
AcDbLine
 10
5.0
 20
0.0
 30
0.0
 11
12.5
 21
0.0
 31
0.0
  0
ENDBLK
  5
B5
330
B3
100
AcDbEntity
  8
0
100
AcDbBlockEnd
  0
BLOCK
  5
C0
330
BF
100
AcDbEntity
  8
0
100
AcDbBlockBegin
  2
SW_CENTERMARKSYMBOL_4
 70
     0
 10
0.0
 20
0.0
 30
0.0
  3
SW_CENTERMARKSYMBOL_4
  1

  0
LINE
  5
C2
330
BF
100
AcDbEntity
  8
FORMAT
 62
     0
100
AcDbLine
 10
0.0
 20
0.0
 30
0.0
 11
0.0
 21
2.5
 31
0.0
  0
LINE
  5
C3
330
BF
100
AcDbEntity
  8
FORMAT
 62
     0
100
AcDbLine
 10
0.0
 20
0.0
 30
0.0
 11
-2.5
 21
0.0
 31
0.0
  0
LINE
  5
C4
330
BF
100
AcDbEntity
  8
FORMAT
 62
     0
100
AcDbLine
 10
0.0
 20
0.0
 30
0.0
 11
0.0
 21
-2.5
 31
0.0
  0
LINE
  5
C5
330
BF
100
AcDbEntity
  8
FORMAT
 62
     0
100
AcDbLine
 10
0.0
 20
0.0
 30
0.0
 11
2.5
 21
0.0
 31
0.0
  0
LINE
  5
C6
330
BF
100
AcDbEntity
  8
FORMAT
 62
     0
100
AcDbLine
 10
0.0
 20
5.0
 30
0.0
 11
0.0
 21
12.5
 31
0.0
  0
LINE
  5
C7
330
BF
100
AcDbEntity
  8
FORMAT
 62
     0
100
AcDbLine
 10
-5.0
 20
0.0
 30
0.0
 11
-12.5
 21
0.0
 31
0.0
  0
LINE
  5
C8
330
BF
100
AcDbEntity
  8
FORMAT
 62
     0
100
AcDbLine
 10
0.0
 20
-5.0
 30
0.0
 11
0.0
 21
-12.5
 31
0.0
  0
LINE
  5
C9
330
BF
100
AcDbEntity
  8
FORMAT
 62
     0
100
AcDbLine
 10
5.0
 20
0.0
 30
0.0
 11
12.5
 21
0.0
 31
0.0
  0
ENDBLK
  5
C1
330
BF
100
AcDbEntity
  8
0
100
AcDbBlockEnd
  0
ENDSEC
  0
SECTION
  2
ENTITIES
  0
CIRCLE
  5
83
330
1F
100
AcDbEntity
  8
0
  6
Continuous
 62
     7
370
    25
100
AcDbCircle
 10
140.8970286623
 20
52.9055229213
 30
0.0
 40
11.0
  0
CIRCLE
  5
84
330
1F
100
AcDbEntity
  8
0
  6
Continuous
 62
     7
370
    25
100
AcDbCircle
 10
140.8970286623
 20
192.6055229213
 30
0.0
 40
11.00000000000003
  0
CIRCLE
  5
85
330
1F
100
AcDbEntity
  8
0
  6
Continuous
 62
     7
370
    25
100
AcDbCircle
 10
140.8970286623
 20
122.7555229213
 30
0.0
 40
91.0
  0
CIRCLE
  5
86
330
1F
100
AcDbEntity
  8
0
  6
Continuous
 62
     7
370
    25
100
AcDbCircle
 10
140.8970286623
 20
122.7555229213
 30
0.0
 40
47.00000000000003
  0
CIRCLE
  5
87
330
1F
100
AcDbEntity
  8
0
  6
Continuous
 62
     7
370
    25
100
AcDbCircle
 10
210.7470286623
 20
122.7555229213
 30
0.0
 40
11.0
  0
CIRCLE
  5
88
330
1F
100
AcDbEntity
  8
0
  6
Continuous
 62
     7
370
    25
100
AcDbCircle
 10
71.0470286623
 20
122.7555229213
 30
0.0
 40
10.99999999999999
  0
CIRCLE
  5
89
330
1F
100
AcDbEntity
  8
0
  6
Continuous
 62
     7
370
    25
100
AcDbCircle
 10
140.8970286623
 20
122.7555229213
 30
0.0
 40
46.00000000000003
  0
CIRCLE
  5
8A
330
1F
100
AcDbEntity
  8
0
  6
Continuous
 62
     7
370
    25
100
AcDbCircle
 10
140.8970286623
 20
122.7555229213
 30
0.0
 40
92.0
  0
CIRCLE
  5
8B
330
1F
100
AcDbEntity
  8
0
  6
Continuous
 62
     7
370
    25
100
AcDbCircle
 10
140.8970286623
 20
192.6055229213
 30
0.0
 40
10.00000000000003
  0
CIRCLE
  5
8C
330
1F
100
AcDbEntity
  8
0
  6
Continuous
 62
     7
370
    25
100
AcDbCircle
 10
71.0470286623
 20
122.7555229213
 30
0.0
 40
10.0
  0
CIRCLE
  5
8D
330
1F
100
AcDbEntity
  8
0
  6
Continuous
 62
     7
370
    25
100
AcDbCircle
 10
210.7470286623
 20
122.7555229213
 30
0.0
 40
10.0
  0
CIRCLE
  5
8E
330
1F
100
AcDbEntity
  8
0
  6
Continuous
 62
     7
370
    25
100
AcDbCircle
 10
140.8970286623
 20
52.9055229213
 30
0.0
 40
10.0
  0
INSERT
  5
9A
330
1F
100
AcDbEntity
  8
FORMAT
 62
     7
100
AcDbBlockReference
  2
SW_CENTERMARKSYMBOL_0
 10
140.8970286623
 20
122.7555229213
 30
0.0
  0
INSERT
  5
A6
330
1F
100
AcDbEntity
  8
FORMAT
 62
     7
100
AcDbBlockReference
  2
SW_CENTERMARKSYMBOL_1
 10
140.8970286623
 20
192.6055229213
 30
0.0
  0
INSERT
  5
B2
330
1F
100
AcDbEntity
  8
FORMAT
 62
     7
100
AcDbBlockReference
  2
SW_CENTERMARKSYMBOL_2
 10
210.7470286623
 20
122.7555229213
 30
0.0
  0
INSERT
  5
BE
330
1F
100
AcDbEntity
  8
FORMAT
 62
     7
100
AcDbBlockReference
  2
SW_CENTERMARKSYMBOL_3
 10
140.8970286623
 20
52.9055229213
 30
0.0
  0
INSERT
  5
CA
330
1F
100
AcDbEntity
  8
FORMAT
 62
     7
100
AcDbBlockReference
  2
SW_CENTERMARKSYMBOL_4
 10
71.0470286623
 20
122.7555229213
 30
0.0
  0
LINE
  5
CB
330
1F
100
AcDbEntity
  8
0
  6
Continuous
 62
     7
370
    25
100
AcDbLine
 10
-76.6996976269
 20
214.7555229213
 30
0.0
 11
-92.6996976269
 21
214.7555229213
 31
0.0
  0
LINE
  5
CC
330
1F
100
AcDbEntity
  8
0
  6
Continuous
 62
     7
370
    25
100
AcDbLine
 10
-92.6996976269
 20
30.7555229213
 30
0.0
 11
-76.6996976269
 21
30.7555229213
 31
0.0
  0
ARC
  5
CD
330
1F
100
AcDbEntity
  8
0
  6
Continuous
 62
     7
370
    25
100
AcDbCircle
 10
-76.6996976269
 20
31.7555229213
 30
0.0
 40
1.000000000000004
100
AcDbArc
 50
270.0
 51
0.0
  0
ARC
  5
CE
330
1F
100
AcDbEntity
  8
0
  6
Continuous
 62
     7
370
    25
100
AcDbCircle
 10
-76.6996976269
 20
213.7555229213
 30
0.0
 40
1.0
100
AcDbArc
 50
0.0
 51
90.0
  0
ARC
  5
CF
330
1F
100
AcDbEntity
  8
0
  6
Continuous
 62
     7
370
    25
100
AcDbCircle
 10
-92.6996976269
 20
31.7555229213
 30
0.0
 40
1.000000000000004
100
AcDbArc
 50
180.0
 51
270.0
  0
ARC
  5
D0
330
1F
100
AcDbEntity
  8
0
  6
Continuous
 62
     7
370
    25
100
AcDbCircle
 10
-92.6996976269
 20
213.7555229213
 30
0.0
 40
1.0
100
AcDbArc
 50
90.0
 51
180.0
  0
LINE
  5
D1
330
1F
100
AcDbEntity
  8
0
  6
Continuous
 62
     7
370
    25
100
AcDbLine
 10
-75.6996976269
 20
122.7555229213
 30
0.0
 11
-75.6996976269
 21
31.7555229213
 31
0.0
  0
LINE
  5
D2
330
1F
100
AcDbEntity
  8
0
  6
Continuous
 62
     7
370
    25
100
AcDbLine
 10
-75.6996976269
 20
213.7555229213
 30
0.0
 11
-75.6996976269
 21
122.7555229213
 31
0.0
  0
LINE
  5
D3
330
1F
100
AcDbEntity
  8
0
  6
Continuous
 62
     7
370
    25
100
AcDbLine
 10
-93.6996976269
 20
122.7555229213
 30
0.0
 11
-93.6996976269
 21
213.7555229213
 31
0.0
  0
LINE
  5
D4
330
1F
100
AcDbEntity
  8
0
  6
Continuous
 62
     7
370
    25
100
AcDbLine
 10
-93.6996976269
 20
31.7555229213
 30
0.0
 11
-93.6996976269
 21
122.7555229213
 31
0.0
  0
LINE
  5
D5
330
1F
100
AcDbEntity
  8
0
  6
Continuous
 62
     1
370
    25
100
AcDbLine
 10
-92.6996976269
 20
122.7555229213
 30
0.0
 11
-92.6996976269
 21
30.7555229213
 31
0.0
  0
LINE
  5
D6
330
1F
100
AcDbEntity
  8
0
  6
Continuous
 62
     1
370
    25
100
AcDbLine
 10
-92.6996976269
 20
214.7555229213
 30
0.0
 11
-92.6996976269
 21
122.7555229213
 31
0.0
  0
LINE
  5
D7
330
1F
100
AcDbEntity
  8
0
  6
Continuous
 62
     1
370
    25
100
AcDbLine
 10
-76.6996976269
 20
122.7555229213
 30
0.0
 11
-76.6996976269
 21
214.7555229213
 31
0.0
  0
LINE
  5
D8
330
1F
100
AcDbEntity
  8
0
  6
Continuous
 62
     1
370
    25
100
AcDbLine
 10
-76.6996976269
 20
30.7555229213
 30
0.0
 11
-76.6996976269
 21
122.7555229213
 31
0.0
  0
LINE
  5
D9
330
1F
100
AcDbEntity
  8
0
  6
Continuous
 62
     7
370
    25
100
AcDbLine
 10
325.3859436093
 20
30.7555229213
 30
0.0
 11
341.3859436093
 21
30.7555229213
 31
0.0
  0
LINE
  5
DA
330
1F
100
AcDbEntity
  8
0
  6
Continuous
 62
     7
370
    25
100
AcDbLine
 10
341.3859436093
 20
214.7555229213
 30
0.0
 11
325.3859436093
 21
214.7555229213
 31
0.0
  0
ARC
  5
DB
330
1F
100
AcDbEntity
  8
0
  6
Continuous
 62
     7
370
    25
100
AcDbCircle
 10
325.3859436093
 20
213.7555229213
 30
0.0
 40
1.0
100
AcDbArc
 50
90.0
 51
180.0
  0
ARC
  5
DC
330
1F
100
AcDbEntity
  8
0
  6
Continuous
 62
     7
370
    25
100
AcDbCircle
 10
325.3859436093
 20
31.7555229213
 30
0.0
 40
1.000000000000004
100
AcDbArc
 50
180.0
 51
270.0
  0
ARC
  5
DD
330
1F
100
AcDbEntity
  8
0
  6
Continuous
 62
     7
370
    25
100
AcDbCircle
 10
341.3859436093
 20
213.7555229213
 30
0.0
 40
1.0
100
AcDbArc
 50
0.0
 51
90.0
  0
ARC
  5
DE
330
1F
100
AcDbEntity
  8
0
  6
Continuous
 62
     7
370
    25
100
AcDbCircle
 10
341.3859436093
 20
31.7555229213
 30
0.0
 40
1.000000000000004
100
AcDbArc
 50
270.0
 51
0.0
  0
LINE
  5
DF
330
1F
100
AcDbEntity
  8
0
  6
Continuous
 62
     7
370
    25
100
AcDbLine
 10
324.3859436093
 20
31.7555229213
 30
0.0
 11
324.3859436093
 21
213.7555229213
 31
0.0
  0
LINE
  5
E0
330
1F
100
AcDbEntity
  8
0
  6
Continuous
 62
     7
370
    25
100
AcDbLine
 10
342.3859436093
 20
213.7555229213
 30
0.0
 11
342.3859436093
 21
31.7555229213
 31
0.0
  0
LINE
  5
E1
330
1F
100
AcDbEntity
  8
0
  6
Continuous
 62
     1
370
    25
100
AcDbLine
 10
341.3859436093
 20
30.7555229213
 30
0.0
 11
341.3859436093
 21
214.7555229213
 31
0.0
  0
LINE
  5
E2
330
1F
100
AcDbEntity
  8
0
  6
Continuous
 62
     1
370
    25
100
AcDbLine
 10
325.3859436093
 20
214.7555229213
 30
0.0
 11
325.3859436093
 21
30.7555229213
 31
0.0
  0
LINE
  5
E3
330
1F
100
AcDbEntity
  8
0
  6
Continuous
 62
     7
370
    25
100
AcDbLine
 10
232.8970286623
 20
257.8067022863
 30
0.0
 11
232.8970286623
 21
273.8067022863
 31
0.0
  0
LINE
  5
E4
330
1F
100
AcDbEntity
  8
0
  6
Continuous
 62
     7
370
    25
100
AcDbLine
 10
48.8970286623
 20
273.8067022863
 30
0.0
 11
48.8970286623
 21
257.8067022863
 31
0.0
  0
ARC
  5
E5
330
1F
100
AcDbEntity
  8
0
  6
Continuous
 62
     7
370
    25
100
AcDbCircle
 10
49.8970286623
 20
257.8067022863
 30
0.0
 40
1.0
100
AcDbArc
 50
180.0
 51
270.0
  0
ARC
  5
E6
330
1F
100
AcDbEntity
  8
0
  6
Continuous
 62
     7
370
    25
100
AcDbCircle
 10
231.8970286623
 20
257.8067022863
 30
0.0
 40
1.0
100
AcDbArc
 50
270.0
 51
0.0
  0
ARC
  5
E7
330
1F
100
AcDbEntity
  8
0
  6
Continuous
 62
     7
370
    25
100
AcDbCircle
 10
49.8970286623
 20
273.8067022863
 30
0.0
 40
1.0
100
AcDbArc
 50
90.0
 51
180.0
  0
ARC
  5
E8
330
1F
100
AcDbEntity
  8
0
  6
Continuous
 62
     7
370
    25
100
AcDbCircle
 10
231.8970286623
 20
273.8067022863
 30
0.0
 40
1.0
100
AcDbArc
 50
0.0
 51
90.0
  0
LINE
  5
E9
330
1F
100
AcDbEntity
  8
0
  6
Continuous
 62
     7
370
    25
100
AcDbLine
 10
231.8970286623
 20
256.8067022863
 30
0.0
 11
49.8970286623
 21
256.8067022863
 31
0.0
  0
LINE
  5
EA
330
1F
100
AcDbEntity
  8
0
  6
Continuous
 62
     7
370
    25
100
AcDbLine
 10
49.8970286623
 20
274.8067022863
 30
0.0
 11
231.8970286623
 21
274.8067022863
 31
0.0
  0
LINE
  5
EB
330
1F
100
AcDbEntity
  8
0
  6
Continuous
 62
     1
370
    25
100
AcDbLine
 10
232.8970286623
 20
273.8067022863
 30
0.0
 11
48.8970286623
 21
273.8067022863
 31
0.0
  0
LINE
  5
EC
330
1F
100
AcDbEntity
  8
0
  6
Continuous
 62
     1
370
    25
100
AcDbLine
 10
48.8970286623
 20
257.8067022863
 30
0.0
 11
232.8970286623
 21
257.8067022863
 31
0.0
  0
LINE
  5
ED
330
1F
100
AcDbEntity
  8
0
  6
Continuous
 62
     7
370
    25
100
AcDbLine
 10
48.8970286623
 20
-65.421908466
 30
0.0
 11
48.8970286623
 21
-81.421908466
 31
0.0
  0
LINE
  5
EE
330
1F
100
AcDbEntity
  8
0
  6
Continuous
 62
     7
370
    25
100
AcDbLine
 10
232.8970286623
 20
-81.421908466
 30
0.0
 11
232.8970286623
 21
-65.421908466
 31
0.0
  0
ARC
  5
EF
330
1F
100
AcDbEntity
  8
0
  6
Continuous
 62
     7
370
    25
100
AcDbCircle
 10
231.8970286623
 20
-65.421908466
 30
0.0
 40
1.0
100
AcDbArc
 50
0.0
 51
90.0
  0
ARC
  5
F0
330
1F
100
AcDbEntity
  8
0
  6
Continuous
 62
     7
370
    25
100
AcDbCircle
 10
49.8970286623
 20
-65.421908466
 30
0.0
 40
1.0
100
AcDbArc
 50
90.0
 51
180.0
  0
ARC
  5
F1
330
1F
100
AcDbEntity
  8
0
  6
Continuous
 62
     7
370
    25
100
AcDbCircle
 10
231.8970286623
 20
-81.421908466
 30
0.0
 40
1.0
100
AcDbArc
 50
270.0
 51
0.0
  0
ARC
  5
F2
330
1F
100
AcDbEntity
  8
0
  6
Continuous
 62
     7
370
    25
100
AcDbCircle
 10
49.8970286623
 20
-81.421908466
 30
0.0
 40
1.0
100
AcDbArc
 50
180.0
 51
270.0
  0
LINE
  5
F3
330
1F
100
AcDbEntity
  8
0
  6
Continuous
 62
     7
370
    25
100
AcDbLine
 10
49.8970286623
 20
-64.421908466
 30
0.0
 11
231.8970286623
 21
-64.421908466
 31
0.0
  0
LINE
  5
F4
330
1F
100
AcDbEntity
  8
0
  6
Continuous
 62
     7
370
    25
100
AcDbLine
 10
231.8970286623
 20
-82.421908466
 30
0.0
 11
49.8970286623
 21
-82.421908466
 31
0.0
  0
LINE
  5
F5
330
1F
100
AcDbEntity
  8
0
  6
Continuous
 62
     1
370
    25
100
AcDbLine
 10
48.8970286623
 20
-81.421908466
 30
0.0
 11
232.8970286623
 21
-81.421908466
 31
0.0
  0
LINE
  5
F6
330
1F
100
AcDbEntity
  8
0
  6
Continuous
 62
     1
370
    25
100
AcDbLine
 10
232.8970286623
 20
-65.421908466
 30
0.0
 11
48.8970286623
 21
-65.421908466
 31
0.0
  0
SPLINE
  5
F7
330
1F
100
AcDbEntity
  8
0
  6
Continuous
 62
     7
370
    25
100
AcDbSpline
210
0.0
220
0.0
230
1.0
 70
     8
 71
     3
 72
    77
 73
    73
 74
     0
 42
0.00000001
 43
0.00000001
 40
0.0
 40
0.0
 40
0.0
 40
0.0
 40
0.0090420321273418
 40
0.0234266997727506
 40
0.0378263016742707
 40
0.0522429540995068
 40
0.0666775651736195
 40
0.0811299522699825
 40
0.0955990527586609
 40
0.1100831790163601
 40
0.1245802736167803
 40
0.1390881329697478
 40
0.1536045822388874
 40
0.1681275971366193
 40
0.1826553771009365
 40
0.1971863791048902
 40
0.2117193227420862
 40
0.2262531764639223
 40
0.2407869713034859
 40
0.2553200906829918
 40
0.2698521355982355
 40
0.2843828338545875
 40
0.2989120154471483
 40
0.3134395914735414
 40
0.3279655365183174
 40
0.3424898742275696
 40
0.3570126656891923
 40
0.3715340002062933
 40
0.3860539880667554
 40
0.4005727549494716
 40
0.4150904376541429
 40
0.4296071808888175
 40
0.4441231348934885
 40
0.4586384537167059
 40
0.4731532939949202
 40
0.4876678141108902
 40
0.5021821736284234
 40
0.5166965329165302
 40
0.5312110175709341
 40
0.5457257705783323
 40
0.5602409533861347
 40
0.5747567273177064
 40
0.5892732531354601
 40
0.603790690386574
 40
0.6183091964353988
 40
0.6328289250711863
 40
0.6473500245561926
 40
0.6618726349495622
 40
0.676396884506383
 40
0.6909228849090987
 40
0.7054507250407619
 40
0.719980462959411
 40
0.7345121156847395
 40
0.7490456463719072
 40
0.7635809484379319
 40
0.7781178262482303
 40
0.7926559721010905
 40
0.8071949395181836
 40
0.8217339646973402
 40
0.8362720619576034
 40
0.8508081015252097
 40
0.8653406881571641
 40
0.8798681498969417
 40
0.8943885487424894
 40
0.9088997239297097
 40
0.9233993789697964
 40
0.9378852213696732
 40
0.952355157861221
 40
0.9668075372862518
 40
0.9812414187924771
 40
0.9956568276010416
 40
1.0
 40
1.0
 40
1.0
 40
1.0
 10
376.0574342822344
 20
-13.14509714444101
 30
0.0
 10
375.6022265201842
 20
-13.000431745861
 30
0.0
 10
374.4228438962793
 20
-12.6256229846987
 30
0.0
 10
372.4439631308578
 20
-12.18437885950305
 30
0.0
 10
370.133593831644
 20
-11.80416111676372
 30
0.0
 10
367.7610885810131
 20
-11.57660980092931
 30
0.0
 10
365.3340645561169
 20
-11.4946146262047
 30
0.0
 10
362.855771872329
 20
-11.56057006473855
 30
0.0
 10
360.3308555273445
 20
-11.77397160990407
 30
0.0
 10
357.7637789027694
 20
-12.13471665114681
 30
0.0
 10
355.1592086766153
 20
-12.64220265758459
 30
0.0
 10
352.5218711939934
 20
-13.29556602702162
 30
0.0
 10
349.8565536169738
 20
-14.09362485761623
 30
0.0
 10
347.1680720751361
 20
-15.03490793213426
 30
0.0
 10
344.4612555651518
 20
-16.11766407635169
 30
0.0
 10
341.7409321581139
 20
-17.33987769182925
 30
0.0
 10
339.0119199523609
 20
-18.69928180722831
 30
0.0
 10
336.2790307850472
 20
-20.19336450570113
 30
0.0
 10
333.5470557179755
 20
-21.81938230837792
 30
0.0
 10
330.820757673925
 20
-23.57437113333481
 30
0.0
 10
328.1048583010394
 20
-25.45516201483582
 30
0.0
 10
325.404044731133
 20
-27.45838265348584
 30
0.0
 10
322.7229692507464
 20
-29.58046087600275
 30
0.0
 10
320.0662444681711
 20
-31.81763025951089
 30
0.0
 10
317.4384379409161
 20
-34.16593577525543
 30
0.0
 10
314.8440663248147
 20
-36.62123960023271
 30
0.0
 10
312.2875891262722
 20
-39.1792271990584
 30
0.0
 10
309.7734021459257
 20
-41.8354137412481
 30
0.0
 10
307.3058307003943
 20
-44.58515089059151
 30
0.0
 10
304.8891227026688
 20
-47.42363398222714
 30
0.0
 10
302.5274416735107
 20
-50.34590958788594
 30
0.0
 10
300.2248597475403
 20
-53.34688345921617
 30
0.0
 10
297.9853507293803
 20
-56.42132883190242
 30
0.0
 10
295.81278324771
 20
-59.56389506853699
 30
0.0
 10
293.7109140485875
 20
-62.7691166150543
 30
0.0
 10
291.6833814638307
 20
-66.03142224364039
 30
0.0
 10
289.7336990858761
 20
-69.34514455325402
 30
0.0
 10
287.8652511913652
 20
-72.70452697481846
 30
0.0
 10
286.0812858332441
 20
-76.10373485007361
 30
0.0
 10
284.3849083334861
 20
-79.53686696446967
 30
0.0
 10
282.779074794647
 20
-82.99796871107262
 30
0.0
 10
281.2665880930072
 20
-86.48104120880438
 30
0.0
 10
279.8500940280468
 20
-89.98005028204341
 30
0.0
 10
278.532077068976
 20
-93.488936898774
 30
0.0
 10
277.3148564592141
 20
-97.0016275990661
 30
0.0
 10
276.200582687729
 20
-100.5120448688824
 30
0.0
 10
275.1912343319422
 20
-104.0141174100834
 30
0.0
 10
274.288615271486
 20
-107.5017902522885
 30
0.0
 10
273.4943522646882
 20
-110.9690346464679
 30
0.0
 10
272.8098928696157
 20
-114.4098576739947
 30
0.0
 10
272.2365036779878
 20
-117.8183114989187
 30
0.0
 10
271.7752688123587
 20
-121.1885021863446
 30
0.0
 10
271.4270886136619
 20
-124.5145980074913
 30
0.0
 10
271.1926784166852
 20
-127.7908371545636
 30
0.0
 10
271.0725672747265
 20
-131.0115347993874
 30
0.0
 10
271.0670964525704
 20
-134.1710894534836
 30
0.0
 10
271.17641745941
 20
-137.2639886304661
 30
0.0
 10
271.400488589277
 20
-140.2848035866382
 30
0.0
 10
271.7390688654425
 20
-143.2281939178696
 30
0.0
 10
272.1917114682566
 20
-146.0889197453938
 30
0.0
 10
272.7577582527161
 20
-148.8618566173451
 30
0.0
 10
273.4363330151257
 20
-151.542001784517
 30
0.0
 10
274.2263294880728
 20
-154.124479062274
 30
0.0
 10
275.1264059958458
 20
-156.6045443666553
 30
0.0
 10
276.1349565240794
 20
-158.9776308895249
 30
0.0
 10
277.2501749357957
 20
-161.2392686120835
 30
0.0
 10
278.4697869366308
 20
-163.38549651492
 30
0.0
 10
279.7920472523335
 20
-165.411460847965
 30
0.0
 10
281.212062080178
 20
-167.3167860999613
 30
0.0
 10
282.7355756863361
 20
-169.085713754264
 30
0.0
 10
283.9575744548587
 20
-170.371660611909
 30
0.0
 10
284.7007922998683
 20
-171.0232714355504
 30
0.0
 10
284.8728694519274
 20
-171.1741388232699
 30
0.0
  0
LINE
  5
F8
330
1F
100
AcDbEntity
  8
0
  6
Continuous
 62
     7
370
    25
100
AcDbLine
 10
393.7311690921
 20
-22.4468864627
 30
0.0
 11
382.4174605931
 21
-15.9156215681
 31
0.0
  0
LINE
  5
F9
330
1F
100
AcDbEntity
  8
0
  6
Continuous
 62
     7
370
    25
100
AcDbLine
 10
290.4249371906
 20
-175.2686122461
 30
0.0
 11
301.7386456895
 21
-181.7998771407
 31
0.0
  0
SPLINE
  5
FA
330
1F
100
AcDbEntity
  8
0
  6
Continuous
 62
     7
370
    25
100
AcDbSpline
210
0.0
220
0.0
230
1.0
 70
     8
 71
     3
 72
    61
 73
    57
 74
     0
 42
0.00000001
 43
0.00000001
 40
0.0
 40
0.0
 40
0.0
 40
0.0
 40
0.009911428198339
 40
0.0285622493161601
 40
0.0472321687159492
 40
0.0659240481209307
 40
0.0846391778691797
 40
0.1033774177487736
 40
0.1221374634716183
 40
0.1409171751955796
 40
0.1597139100451809
 40
0.17852481612235
 40
0.1973470643732522
 40
0.2161780115309484
 40
0.2350152993097858
 40
0.2538569015576907
 40
0.2727011331488069
 40
0.2915466335585149
 40
0.310392144885761
 40
0.329236826244289
 40
0.3480801466766514
 40
0.3669217421972449
 40
0.385761383537587
 40
0.4045989484616985
 40
0.4234343986008655
 40
0.4422677604582166
 40
0.4610991100904073
 40
0.4799285609318798
 40
0.4987562542442013
 40
0.5175823517201784
 40
0.5364070298321478
 40
0.5552304755753473
 40
0.5740528833148437
 40
0.5928744524952634
 40
0.6116953860155675
 40
0.6305158891061986
 40
0.6493361685736602
 40
0.6681564322984579
 40
0.6869768482466355
 40
0.7057975966431036
 40
0.724618886825775
 40
0.7434409280058093
 40
0.7622639287171801
 40
0.7810880959933383
 40
0.7999136341473232
 40
0.818740743012862
 40
0.837569615474027
 40
0.8564004340731117
 40
0.8752333664404418
 40
0.8940685592354737
 40
0.9129061302273487
 40
0.931746158077859
 40
0.950588669326979
 40
0.9694336220322822
 40
0.9882808854978152
 40
1.0
 40
1.0
 40
1.0
 40
1.0
 10
308.1494761791912
 20
-184.5850631376501
 30
0.0
 10
308.5335834965431
 20
-184.7088476122406
 30
0.0
 10
309.6404844136285
 20
-185.0655634108091
 30
0.0
 10
311.5434864217705
 20
-185.4967564913418
 30
0.0
 10
313.8488795012564
 20
-185.8887160972013
 30
0.0
 10
316.2172374736816
 20
-186.1269175209383
 30
0.0
 10
318.6402748942301
 20
-186.2199046720108
 30
0.0
 10
321.1149383346129
 20
-186.1648739611498
 30
0.0
 10
323.6365456294246
 20
-185.9624128105434
 30
0.0
 10
326.2006564206416
 20
-185.6125729697043
 30
0.0
 10
328.802607916019
 20
-185.1159413016386
 30
0.0
 10
331.4376798547526
 20
-184.4733564406585
 30
0.0
 10
334.1010879734227
 20
-183.6859786002665
 30
0.0
 10
336.7880177909927
 20
-182.7552575972123
 30
0.0
 10
339.4936407023986
 20
-181.6829244564764
 30
0.0
 10
342.2131282237745
 20
-180.4709756172519
 30
0.0
 10
344.9416612668844
 20
-179.1216598496685
 30
0.0
 10
347.6744275148839
 20
-177.6374711590244
 30
0.0
 10
350.4066339538466
 20
-176.0211363081092
 30
0.0
 10
353.1335154673486
 20
-174.2756033141592
 30
0.0
 10
355.8503470878481
 20
-172.404026352381
 30
0.0
 10
358.5524392768825
 20
-170.4097626757596
 30
0.0
 10
361.235137005462
 20
-168.2963698325354
 30
0.0
 10
363.8938245454203
 20
-166.0676000360645
 30
0.0
 10
366.523930803721
 20
-163.7273945282467
 30
0.0
 10
369.1209351405178
 20
-161.2798777843749
 30
0.0
 10
371.6803735904917
 20
-158.7293514539424
 30
0.0
 10
374.1978453993414
 20
-156.0802879697916
 30
0.0
 10
376.6690197884367
 20
-153.3373237870838
 30
0.0
 10
379.0896428665385
 20
-150.505252235141
 30
0.0
 10
381.4555446155767
 20
-147.5890159807424
 30
0.0
 10
383.7626458861664
 20
-144.5936991123102
 30
0.0
 10
386.0069653469051
 20
-141.5245188618304
 30
0.0
 10
388.1846263390703
 20
-138.3868169862646
 30
0.0
 10
390.2918635949154
 20
-135.1860508334496
 30
0.0
 10
392.3250297833898
 20
-131.9277841194659
 30
0.0
 10
394.2806018515813
 20
-128.6176774461996
 30
0.0
 10
396.1551857853679
 20
-125.2614810033047
 30
0.0
 10
397.945523169637
 20
-121.8650241056493
 30
0.0
 10
399.6484979142583
 20
-118.4342033863576
 30
0.0
 10
401.2611426382269
 20
-114.9749699599048
 30
0.0
 10
402.7806429979944
 20
-111.4933196757455
 30
0.0
 10
404.204341398942
 20
-107.9952844501646
 30
0.0
 10
405.5297412682414
 20
-104.4869218329751
 30
0.0
 10
406.7545110022018
 20
-100.974304562505
 30
0.0
 10
407.8764874293014
 20
-97.46351023949077
 30
0.0
 10
408.8936793421797
 20
-93.96061084834355
 30
0.0
 10
409.8042690148866
 20
-90.47166337523518
 30
0.0
 10
410.6066194914893
 20
-87.00269712030239
 30
0.0
 10
411.2992586283949
 20
-83.55971442636768
 30
0.0
 10
411.8809483000334
 20
-80.14864272178059
 30
0.0
 10
412.3504342644401
 20
-76.77547003470843
 30
0.0
 10
412.7073868569866
 20
-73.44569775548514
 30
0.0
 10
412.9488957572178
 20
-70.16634443862543
 30
0.0
 10
413.0657041778611
 20
-67.34548867351857
 30
0.0
 10
413.0772122839885
 20
-65.63327390576474
 30
0.0
 10
413.0816244787719
 20
-64.97681271377033
 30
0.0
  0
SPLINE
  5
FB
330
1F
100
AcDbEntity
  8
0
  6
Continuous
 62
     7
370
    25
100
AcDbSpline
210
0.0
220
0.0
230
1.0
 70
     8
 71
     3
 72
    24
 73
    20
 74
     0
 42
0.00000001
 43
0.00000001
 40
0.0
 40
0.0
 40
0.0
 40
0.0
 40
0.0332629377682602
 40
0.0964185025620231
 40
0.1595820809916119
 40
0.2227455889893318
 40
0.2859047392869563
 40
0.3490545412763045
 40
0.4121888450568724
 40
0.4753002982044092
 40
0.5383804009543248
 40
0.6014197067123273
 40
0.6644082160335196
 40
0.72733600153687
 40
0.7901940732794878
 40
0.8529754462790826
 40
0.915676308065351
 40
0.9782971177437461
 40
0.9999999999999999
 40
0.9999999999999999
 40
0.9999999999999999
 40
0.9999999999999999
 10
413.0816244787719
 20
-64.97681271377033
 30
0.0
 10
413.0784229878868
 20
-64.42459334811514
 30
0.0
 10
413.0691429008645
 20
-62.82388794160021
 30
0.0
 10
412.9660375707574
 20
-60.22544842063388
 30
0.0
 10
412.7346995964795
 20
-57.20959530440026
 30
0.0
 10
412.3873151406203
 20
-54.27233493447466
 30
0.0
 10
411.9263272482559
 20
-51.41789577191582
 30
0.0
 10
411.3518806979645
 20
-48.6516815247382
 30
0.0
 10
410.6650101114512
 20
-45.97860868499437
 30
0.0
 10
409.8668011064236
 20
-43.40356450668283
 30
0.0
 10
408.9586239388087
 20
-40.93127633025413
 30
0.0
 10
407.9420997972293
 20
-38.56630132187696
 30
0.0
 10
406.8190581271458
 20
-36.31309023760021
 30
0.0
 10
405.5917793637197
 20
-34.17560491805741
 30
0.0
 10
404.2620744065814
 20
-32.15861615454972
 30
0.0
 10
402.8346772219591
 20
-30.26271703303968
 30
0.0
 10
401.3045149229553
 20
-28.50275383150577
 30
0.0
 10
400.0519485995697
 20
-27.2007459211539
 30
0.0
 10
399.2794718651081
 20
-26.53157788670614
 30
0.0
 10
399.0806550055866
 20
-26.35935019211558
 30
0.0
  0
SPLINE
  5
FC
330
1F
100
AcDbEntity
  8
0
  6
Continuous
 62
     7
370
    25
100
AcDbSpline
210
0.0
220
0.0
230
1.0
 70
     8
 71
     3
 72
    20
 73
    16
 74
     0
 42
0.00000001
 43
0.00000001
 40
0.0
 40
0.0
 40
0.0
 40
0.0
 40
0.0219215698885292
 40
0.1113196764571727
 40
0.2004227403465519
 40
0.2891811374309652
 40
0.3775985286686195
 40
0.4657147878685414
 40
0.5535874226511006
 40
0.6412772860026906
 40
0.7288399520573179
 40
0.8163217608495653
 40
0.9037589142249391
 40
0.9865403110442548
 40
1.0
 40
1.0
 40
1.0
 40
1.0
 10
361.7573207490826
 20
-57.44612359632701
 30
0.0
 10
361.8554030104906
 20
-57.5259042993391
 30
0.0
 10
362.3534734343536
 20
-57.93103778621948
 30
0.0
 10
363.1648798282946
 20
-58.7943541125728
 30
0.0
 10
364.1828074666216
 20
-60.03614780763819
 30
0.0
 10
365.0970928164244
 20
-61.41183046361036
 30
0.0
 10
365.9136750549987
 20
-62.90234732165487
 30
0.0
 10
366.6278836893549
 20
-64.50614796498822
 30
0.0
 10
367.2382816628252
 20
-66.21692353375478
 30
0.0
 10
367.7428638319971
 20
-68.02940432581833
 30
0.0
 10
368.1399448356573
 20
-69.93772599080467
 30
0.0
 10
368.4282593926772
 20
-71.93560047468227
 30
0.0
 10
368.6026893311063
 20
-73.98005402649349
 30
0.0
 10
368.6529185254245
 20
-75.48859940478283
 30
0.0
 10
368.6549355226916
 20
-76.29390163971505
 30
0.0
 10
368.655217607579
 20
-76.40652627928829
 30
0.0
  0
SPLINE
  5
FD
330
1F
100
AcDbEntity
  8
0
  6
Continuous
 62
     7
370
    25
100
AcDbSpline
210
0.0
220
0.0
230
1.0
 70
     8
 71
     3
 72
    46
 73
    42
 74
     0
 42
0.00000001
 43
0.00000001
 40
0.0
 40
0.0
 40
0.0
 40
0.0
 40
0.0137087114509688
 40
0.0398177235137757
 40
0.0659355586099634
 40
0.0920602438679666
 40
0.1181927746404201
 40
0.1443334489202814
 40
0.1704820753183886
 40
0.1966381271633467
 40
0.2228008533463375
 40
0.2489693562698724
 40
0.2751426453520753
 40
0.3013196727152183
 40
0.3274993561394807
 40
0.3536805931393256
 40
0.379862269106134
 40
0.4060430308205867
 40
0.4322216088900259
 40
0.4583968759337387
 40
0.4845677091777442
 40
0.51073300013413
 40
0.5368916711455344
 40
0.5630427020001214
 40
0.5891851708933071
 40
0.6153183153648772
 40
0.6414416205156757
 40
0.6675549437217415
 40
0.6936586869493646
 40
0.719754029017072
 40
0.7458432295121593
 40
0.7719300062912858
 40
0.7980179178987876
 40
0.8241141794295146
 40
0.850228737297918
 40
0.8763746097417434
 40
0.9025678577719533
 40
0.9288268342718189
 40
0.9551702669668621
 40
0.98161379158815
 40
1.0
 40
1.0
 40
1.0
 40
1.0
 10
368.655217607579
 20
-76.40652627928829
 30
0.0
 10
368.652124972638
 20
-76.79303063640356
 30
0.0
 10
368.6431422404937
 20
-77.91565428221654
 30
0.0
 10
368.5430928537672
 20
-79.82407796314101
 30
0.0
 10
368.318297668438
 20
-82.14387598060975
 30
0.0
 10
367.9809209206296
 20
-84.51261356506176
 30
0.0
 10
367.5338252148461
 20
-86.92064063282629
 30
0.0
 10
366.9778491291858
 20
-89.35978610070876
 30
0.0
 10
366.3148968464698
 20
-91.82133396759212
 30
0.0
 10
365.5471053493425
 20
-94.29658598036012
 30
0.0
 10
364.6770565040769
 20
-96.77675958367759
 30
0.0
 10
363.7077064750707
 20
-99.25306167319303
 30
0.0
 10
362.6423890129863
 20
-101.7167131764783
 30
0.0
 10
361.4847974757413
 20
-104.1589851161831
 30
0.0
 10
360.2389713647709
 20
-106.5712301977963
 30
0.0
 10
358.9092806404741
 20
-108.9449144424759
 30
0.0
 10
357.5004138670172
 20
-111.2716410063822
 30
0.0
 10
356.0173609875633
 20
-113.5431837261951
 30
0.0
 10
354.465393572039
 20
-115.7515216782835
 30
0.0
 10
352.8500413809525
 20
-117.8888747055569
 30
0.0
 10
351.1770743789848
 20
-119.9477289580266
 30
0.0
 10
349.4524858180275
 20
-121.9208611416783
 30
0.0
 10
347.6824717141289
 20
-123.8013666284157
 30
0.0
 10
345.8734092275137
 20
-125.582687345832
 30
0.0
 10
344.0318336742583
 20
-127.2586394699575
 30
0.0
 10
342.1644137802247
 20
-128.8234408993966
 30
0.0
 10
340.277924643528
 20
-130.2717383911689
 30
0.0
 10
338.3792176943955
 20
-131.5986340782358
 30
0.0
 10
336.4751867844961
 20
-132.7997107605362
 30
0.0
 10
334.5727293120099
 20
-133.8710550607543
 30
0.0
 10
332.6787016960356
 20
-134.809276239472
 30
0.0
 10
330.7999171319566
 20
-135.6114985938712
 30
0.0
 10
328.9430566489688
 20
-136.2753907098521
 30
0.0
 10
327.1145969426842
 20
-136.7991750960583
 30
0.0
 10
325.3207240549728
 20
-137.1815553597116
 30
0.0
 10
323.567198492664
 20
-137.4218469156775
 30
0.0
 10
321.8596971696949
 20
-137.5191450161789
 30
0.0
 10
320.2023528217204
 20
-137.4750179140672
 30
0.0
 10
318.6032567271736
 20
-137.2829023161413
 30
0.0
 10
317.2135914638437
 20
-136.9998598191691
 30
0.0
 10
316.3898736784263
 20
-136.7196349629725
 30
0.0
 10
316.0520388119095
 20
-136.6047051550166
 30
0.0
  0
SPLINE
  5
FE
330
1F
100
AcDbEntity
  8
0
  6
Continuous
 62
     7
370
    25
100
AcDbSpline
210
0.0
220
0.0
230
1.0
 70
     8
 71
     3
 72
    15
 73
    11
 74
     0
 42
0.00000001
 43
0.00000001
 40
0.0
 40
0.0
 40
0.0
 40
0.0
 40
0.0144979061141977
 40
0.1899234596716041
 40
0.3472576138815465
 40
0.5144056416625036
 40
0.6751807101910279
 40
0.8325742822649916
 40
0.9797564291072618
 40
1.0
 40
1.0
 40
1.0
 40
1.0
 10
390.7851916650257
 20
-58.40970922736827
 30
0.0
 10
390.8016818597157
 20
-58.41686742946049
 30
0.0
 10
391.0177044219746
 20
-58.51064031608787
 30
0.0
 10
391.3432116575872
 20
-58.79924481838442
 30
0.0
 10
391.7775106510274
 20
-59.29938051525056
 30
0.0
 10
392.1230185352084
 20
-59.93164504462281
 30
0.0
 10
392.3857168654157
 20
-60.69416790918044
 30
0.0
 10
392.5444575160649
 20
-61.53943567856208
 30
0.0
 10
392.5890355612462
 20
-62.19335095498237
 30
0.0
 10
392.5905937490646
 20
-62.54616051447024
 30
0.0
 10
392.5907821507391
 20
-62.58881898669155
 30
0.0
  0
SPLINE
  5
FF
330
1F
100
AcDbEntity
  8
0
  6
Continuous
 62
     7
370
    25
100
AcDbSpline
210
0.0
220
0.0
230
1.0
 70
     8
 71
     3
 72
    27
 73
    23
 74
     0
 42
0.00000001
 43
0.00000001
 40
0.0
 40
0.0
 40
0.0
 40
0.0
 40
0.0271379708058205
 40
0.0791812165391311
 40
0.1313739666740978
 40
0.183713536358888
 40
0.2361878920809088
 40
0.2887655015399842
 40
0.341406686893839
 40
0.3940686576824978
 40
0.4466991129595617
 40
0.4992472462615034
 40
0.551669047789572
 40
0.6039236391512804
 40
0.6559798806100654
 40
0.7078306687658535
 40
0.7595210956905795
 40
0.8111746152303465
 40
0.8630201908791402
 40
0.9155814256728146
 40
0.9697232651846255
 40
0.9999999999999999
 40
0.9999999999999999
 40
0.9999999999999999
 40
0.9999999999999999
 10
392.5907821507391
 20
-62.58881898669155
 30
0.0
 10
392.5879272645095
 20
-62.76276926587062
 30
0.0
 10
392.5795974830992
 20
-63.27030886126899
 30
0.0
 10
392.4855302185082
 20
-64.16465823627486
 30
0.0
 10
392.2725093240039
 20
-65.2739410760381
 30
0.0
 10
391.9532455437165
 20
-66.41588914023322
 30
0.0
 10
391.5333971936564
 20
-67.56979760803173
 30
0.0
 10
391.0184647048303
 20
-68.71654471017973
 30
0.0
 10
390.4165766647587
 20
-69.83661649979909
 30
0.0
 10
389.737573264099
 20
-70.91108356322312
 30
0.0
 10
388.9930450851403
 20
-71.92183582601747
 30
0.0
 10
388.1960711990049
 20
-72.85203801931466
 30
0.0
 10
387.3609894333226
 20
-73.68652160262923
 30
0.0
 10
386.5031818150656
 20
-74.4121329423924
 30
0.0
 10
385.6388265279551
 20
-75.01813344206151
 30
0.0
 10
384.7845280357797
 20
-75.49661835594212
 30
0.0
 10
383.9566600918192
 20
-75.84315888174484
 30
0.0
 10
383.1711184597834
 20
-76.05630830639288
 30
0.0
 10
382.439560084002
 20
-76.14079710781326
 30
0.0
 10
381.7734380574408
 20
-76.09462796341164
 30
0.0
 10
381.2555517989455
 20
-75.9720614042994
 30
0.0
 10
380.986471699367
 20
-75.81708706444907
 30
0.0
 10
380.8899660797927
 20
-75.7615054933525
 30
0.0
  0
SPLINE
  5
100
330
1F
100
AcDbEntity
  8
0
  6
Continuous
 62
     7
370
    25
100
AcDbSpline
210
0.0
220
0.0
230
1.0
 70
     8
 71
     3
 72
    15
 73
    11
 74
     0
 42
0.00000001
 43
0.00000001
 40
0.0
 40
0.0
 40
0.0
 40
0.0
 40
0.0144979061142641
 40
0.1899234596716739
 40
0.3472576138816089
 40
0.5144056416625703
 40
0.6751807101910999
 40
0.832574282265047
 40
0.9797564291073234
 40
1.0
 40
1.0
 40
1.0
 40
1.0
 10
341.3937829991456
 20
-143.9581382429909
 30
0.0
 10
341.4102731938356
 20
-143.9652964450832
 30
0.0
 10
341.6262957560945
 20
-144.0590693317107
 30
0.0
 10
341.9518029917073
 20
-144.3476738340071
 30
0.0
 10
342.3861019851474
 20
-144.8478095308735
 30
0.0
 10
342.7316098693282
 20
-145.4800740602457
 30
0.0
 10
342.9943081995355
 20
-146.2425969248034
 30
0.0
 10
343.1530488501847
 20
-147.087864694185
 30
0.0
 10
343.1976268953661
 20
-147.7417799706052
 30
0.0
 10
343.1991850831844
 20
-148.094589530093
 30
0.0
 10
343.1993734848588
 20
-148.1372480023141
 30
0.0
  0
SPLINE
  5
101
330
1F
100
AcDbEntity
  8
0
  6
Continuous
 62
     7
370
    25
100
AcDbSpline
210
0.0
220
0.0
230
1.0
 70
     8
 71
     3
 72
    27
 73
    23
 74
     0
 42
0.00000001
 43
0.00000001
 40
0.0
 40
0.0
 40
0.0
 40
0.0
 40
0.0271379708058204
 40
0.0791812165391471
 40
0.1313739666741141
 40
0.183713536358907
 40
0.2361878920809284
 40
0.2887655015400015
 40
0.3414066868938598
 40
0.3940686576825174
 40
0.4466991129595805
 40
0.4992472462615206
 40
0.551669047789591
 40
0.603923639151296
 40
0.6559798806100845
 40
0.7078306687658713
 40
0.7595210956905993
 40
0.8111746152303682
 40
0.8630201908791603
 40
0.9155814256728365
 40
0.9697232651846511
 40
0.9999999999999999
 40
0.9999999999999999
 40
0.9999999999999999
 40
0.9999999999999999
 10
343.1993734848588
 20
-148.1372480023141
 30
0.0
 10
343.1965185986293
 20
-148.3111982814932
 30
0.0
 10
343.1881888172189
 20
-148.8187378768917
 30
0.0
 10
343.0941215526279
 20
-149.7130872518977
 30
0.0
 10
342.8811006581236
 20
-150.822370091661
 30
0.0
 10
342.5618368778361
 20
-151.9643181558562
 30
0.0
 10
342.1419885277759
 20
-153.1182266236547
 30
0.0
 10
341.6270560389498
 20
-154.2649737258027
 30
0.0
 10
341.0251679988781
 20
-155.3850455154221
 30
0.0
 10
340.3461645982184
 20
-156.4595125788461
 30
0.0
 10
339.6016364192597
 20
-157.4702648416404
 30
0.0
 10
338.8046625331243
 20
-158.4004670349376
 30
0.0
 10
337.969580767442
 20
-159.2349506182521
 30
0.0
 10
337.111773149185
 20
-159.9605619580152
 30
0.0
 10
336.2474178620746
 20
-160.5665624576843
 30
0.0
 10
335.3931193698991
 20
-161.0450473715649
 30
0.0
 10
334.5652514259386
 20
-161.3915878973676
 30
0.0
 10
333.7797097939028
 20
-161.6047373220155
 30
0.0
 10
333.0481514181214
 20
-161.6892261234359
 30
0.0
 10
332.3820293915603
 20
-161.6430569790342
 30
0.0
 10
331.8641431330651
 20
-161.5204904199219
 30
0.0
 10
331.5950630334867
 20
-161.3655160800716
 30
0.0
 10
331.4985574139123
 20
-161.3099345089751
 30
0.0
  0
SPLINE
  5
102
330
1F
100
AcDbEntity
  8
0
  6
Continuous
 62
     7
370
    25
100
AcDbSpline
210
0.0
220
0.0
230
1.0
 70
     8
 71
     3
 72
    53
 73
    49
 74
     0
 42
0.00000001
 43
0.00000001
 40
0.0
 40
0.0
 40
0.0
 40
0.0
 40
0.0029288273703396
 40
0.025573985182911
 40
0.0481344613176932
 40
0.0706223265532184
 40
0.0930528617464304
 40
0.1154413625343298
 40
0.1378013509252252
 40
0.160143852934429
 40
0.1824773331464345
 40
0.2048079641334565
 40
0.2271388942729618
 40
0.2494732509926427
 40
0.2718130399017304
 40
0.2941593457658558
 40
0.3165125885794693
 40
0.3388727194115185
 40
0.3612393658088249
 40
0.3836119371362859
 40
0.4059896991839846
 40
0.4283718257843612
 40
0.4507574335750434
 40
0.4731456046372729
 40
0.4955354006064341
 40
0.51792587098976
 40
0.5403159602488932
 40
0.5627044836717053
 40
0.5850904769484635
 40
0.6074729779832413
 40
0.6298510337811121
 40
0.6522237125074732
 40
0.6745901232087007
 40
0.6969494465472426
 40
0.7193009809723174
 40
0.7416442100970747
 40
0.7639788986409521
 40
0.7863052259548864
 40
0.8086239674645215
 40
0.830936734482694
 40
0.85324628013666
 40
0.8755557104120696
 40
0.897870118503465
 40
0.920197239997259
 40
0.9425473690769901
 40
0.9649334599741198
 40
0.9873707163456551
 40
1.0
 40
1.0
 40
1.0
 40
1.0
 10
319.8183865208276
 20
-137.4040545997147
 30
0.0
 10
319.7760094338462
 20
-137.3489785595461
 30
0.0
 10
319.4059804572219
 20
-136.868064645169
 30
0.0
 10
318.7982142208792
 20
-135.8422154508191
 30
0.0
 10
318.0064568999475
 20
-134.3252217503995
 30
0.0
 10
317.3263752027581
 20
-132.6848307827494
 30
0.0
 10
316.7483980052722
 20
-130.9423063053279
 30
0.0
 10
316.2774069653776
 20
-129.099018428832
 30
0.0
 10
315.9141909894491
 20
-127.1620334709026
 30
0.0
 10
315.6603569160642
 20
-125.1373667471187
 30
0.0
 10
315.5169561447237
 20
-123.0318176423755
 30
0.0
 10
315.4847895454216
 20
-120.8525087469476
 30
0.0
 10
315.5642647965823
 20
-118.6069424323219
 30
0.0
 10
315.7553968552162
 20
-116.3029216213948
 30
0.0
 10
316.0577946546414
 20
-113.9484743640411
 30
0.0
 10
316.4706538643101
 20
-111.5518576275847
 30
0.0
 10
316.9927526080683
 20
-109.1215173325093
 30
0.0
 10
317.6224533997203
 20
-106.6660452115129
 30
0.0
 10
318.3577088851108
 20
-104.1941380509672
 30
0.0
 10
319.1960704854714
 20
-101.7145590099125
 30
0.0
 10
320.1346990945536
 20
-99.23610087918912
 30
0.0
 10
321.1703773057506
 20
-96.7675509777662
 30
0.0
 10
322.2995228103397
 20
-94.3176574136442
 30
0.0
 10
323.5182027409802
 20
-91.89509646504231
 30
0.0
 10
324.8221488185324
 20
-89.50844088533397
 30
0.0
 10
326.2067712066381
 20
-87.16613237843949
 30
0.0
 10
327.6671717349456
 20
-84.87645514763753
 30
0.0
 10
329.1981649751344
 20
-82.64749753011073
 30
0.0
 10
330.7942989166261
 20
-80.48711925725536
 30
0.0
 10
332.4498775067768
 20
-78.40291925564617
 30
0.0
 10
334.1589751803677
 20
-76.40221474035737
 30
0.0
 10
335.9154570801672
 20
-74.4920130286089
 30
0.0
 10
337.7130003098175
 20
-72.67898358395301
 30
0.0
 10
339.5451164575449
 20
-70.9694302643477
 30
0.0
 10
341.4051757452474
 20
-69.36926376596958
 30
0.0
 10
343.2864332709636
 20
-67.88397438548216
 30
0.0
 10
345.1820580630876
 20
-66.51860517025509
 30
0.0
 10
347.0851655249987
 20
-65.27772650602303
 30
0.0
 10
348.9888552013599
 20
-64.16541084971175
 30
0.0
 10
350.8862514257031
 20
-63.18521712152583
 30
0.0
 10
352.7705281720962
 20
-62.34017167208486
 30
0.0
 10
354.6349384562021
 20
-61.63281824962618
 30
0.0
 10
356.4730019072942
 20
-61.06494965929328
 30
0.0
 10
358.2781806574799
 20
-60.63859240988091
 30
0.0
 10
360.0455171167378
 20
-60.352431706395
 30
0.0
 10
361.7657811195878
 20
-60.21545776517966
 30
0.0
 10
363.2008788195845
 20
-60.19910716917862
 30
0.0
 10
364.0363697330637
 20
-60.28492320731706
 30
0.0
 10
364.3372734358291
 20
-60.3158300229579
 30
0.0
  0
SPLINE
  5
103
330
1F
100
AcDbEntity
  8
0
  6
Continuous
 62
     7
370
    25
100
AcDbSpline
210
0.0
220
0.0
230
1.0
 70
     8
 71
     3
 72
    15
 73
    11
 74
     0
 42
0.00000001
 43
0.00000001
 40
0.0
 40
0.0
 40
0.0
 40
0.0
 40
0.0144979061142471
 40
0.1899234596716545
 40
0.3472576138815832
 40
0.5144056416625343
 40
0.6751807101910571
 40
0.8325742822650097
 40
0.9797564291072857
 40
1.0
 40
1.0
 40
1.0
 40
1.0
 10
341.39378299915
 20
-29.88738682255422
 30
0.0
 10
341.4102731938401
 20
-29.89454502464646
 30
0.0
 10
341.626295756099
 20
-29.98831791127393
 30
0.0
 10
341.9518029917117
 20
-30.27692241357045
 30
0.0
 10
342.3861019851518
 20
-30.77705811043664
 30
0.0
 10
342.7316098693327
 20
-31.40932263980889
 30
0.0
 10
342.9943081995399
 20
-32.17184550436649
 30
0.0
 10
343.1530488501892
 20
-33.01711327374812
 30
0.0
 10
343.1976268953705
 20
-33.67102855016834
 30
0.0
 10
343.1991850831889
 20
-34.02383810965622
 30
0.0
 10
343.1993734848634
 20
-34.06649658187745
 30
0.0
  0
SPLINE
  5
104
330
1F
100
AcDbEntity
  8
0
  6
Continuous
 62
     7
370
    25
100
AcDbSpline
210
0.0
220
0.0
230
1.0
 70
     8
 71
     3
 72
    27
 73
    23
 74
     0
 42
0.00000001
 43
0.00000001
 40
0.0
 40
0.0
 40
0.0
 40
0.0
 40
0.0271379708058204
 40
0.0791812165391473
 40
0.1313739666741145
 40
0.1837135363589075
 40
0.2361878920809291
 40
0.2887655015400024
 40
0.3414066868938608
 40
0.3940686576825185
 40
0.4466991129595816
 40
0.4992472462615248
 40
0.5516690477895903
 40
0.6039236391513019
 40
0.6559798806100859
 40
0.7078306687658724
 40
0.7595210956905986
 40
0.811174615230365
 40
0.8630201908791596
 40
0.9155814256728338
 40
0.969723265184644
 40
1.0
 40
1.0
 40
1.0
 40
1.0
 10
343.1993734848634
 20
-34.06649658187745
 30
0.0
 10
343.1965185986338
 20
-34.24044686105651
 30
0.0
 10
343.1881888172234
 20
-34.74798645645498
 30
0.0
 10
343.0941215526324
 20
-35.64233583146103
 30
0.0
 10
342.8811006581281
 20
-36.75161867122438
 30
0.0
 10
342.5618368778406
 20
-37.89356673541955
 30
0.0
 10
342.1419885277804
 20
-39.04747520321805
 30
0.0
 10
341.6270560389543
 20
-40.19422230536609
 30
0.0
 10
341.0251679988826
 20
-41.31429409498545
 30
0.0
 10
340.3461645982229
 20
-42.38876115840944
 30
0.0
 10
339.6016364192642
 20
-43.39951342120376
 30
0.0
 10
338.8046625331288
 20
-44.3297156145009
 30
0.0
 10
337.9695807674465
 20
-45.16419919781546
 30
0.0
 10
337.1117731491895
 20
-45.88981053757856
 30
0.0
 10
336.247417862079
 20
-46.49581103724766
 30
0.0
 10
335.3931193699036
 20
-46.9742959511282
 30
0.0
 10
334.5652514259431
 20
-47.32083647693086
 30
0.0
 10
333.7797097939074
 20
-47.53398590157882
 30
0.0
 10
333.0481514181259
 20
-47.61847470299917
 30
0.0
 10
332.3820293915648
 20
-47.5723055585975
 30
0.0
 10
331.8641431330697
 20
-47.44973899948526
 30
0.0
 10
331.5950630334912
 20
-47.29476465963491
 30
0.0
 10
331.4985574139169
 20
-47.23918308853838
 30
0.0
  0
SPLINE
  5
105
330
1F
100
AcDbEntity
  8
0
  6
Continuous
 62
     7
370
    25
100
AcDbSpline
210
0.0
220
0.0
230
1.0
 70
     8
 71
     3
 72
    15
 73
    11
 74
     0
 42
0.00000001
 43
0.00000001
 40
0.0
 40
0.0
 40
0.0
 40
0.0
 40
0.0144979061142853
 40
0.1899234596717012
 40
0.3472576138816322
 40
0.5144056416625821
 40
0.6751807101911095
 40
0.8325742822650645
 40
0.979756429107339
 40
1.0
 40
1.0
 40
1.0
 40
1.0
 10
292.0023743332698
 20
-115.4358158381768
 30
0.0
 10
292.0188645279598
 20
-115.4429740402691
 30
0.0
 10
292.2348870902188
 20
-115.5367469268966
 30
0.0
 10
292.5603943258315
 20
-115.8253514291931
 30
0.0
 10
292.9946933192716
 20
-116.3254871260594
 30
0.0
 10
293.3402012034525
 20
-116.9577516554317
 30
0.0
 10
293.6028995336598
 20
-117.7202745199893
 30
0.0
 10
293.7616401843089
 20
-118.565542289371
 30
0.0
 10
293.8062182294902
 20
-119.2194575657911
 30
0.0
 10
293.8077764173086
 20
-119.5722671252789
 30
0.0
 10
293.8079648189831
 20
-119.6149255975
 30
0.0
  0
SPLINE
  5
106
330
1F
100
AcDbEntity
  8
0
  6
Continuous
 62
     7
370
    25
100
AcDbSpline
210
0.0
220
0.0
230
1.0
 70
     8
 71
     3
 72
    27
 73
    23
 74
     0
 42
0.00000001
 43
0.00000001
 40
0.0
 40
0.0
 40
0.0
 40
0.0
 40
0.0271379708058204
 40
0.0791812165391556
 40
0.1313739666741222
 40
0.1837135363589142
 40
0.236187892080934
 40
0.2887655015400124
 40
0.3414066868938663
 40
0.394068657682525
 40
0.4466991129595884
 40
0.4992472462615293
 40
0.5516690477895996
 40
0.6039236391513065
 40
0.6559798806100922
 40
0.7078306687658797
 40
0.7595210956906061
 40
0.8111746152303734
 40
0.8630201908791675
 40
0.9155814256728404
 40
0.9697232651846531
 40
1.0
 40
1.0
 40
1.0
 40
1.0
 10
293.8079648189831
 20
-119.6149255975
 30
0.0
 10
293.8051099327536
 20
-119.7888758766791
 30
0.0
 10
293.7967801513431
 20
-120.2964154720776
 30
0.0
 10
293.7027128867521
 20
-121.1907648470837
 30
0.0
 10
293.4896919922479
 20
-122.3000476868471
 30
0.0
 10
293.1704282119603
 20
-123.4419957510423
 30
0.0
 10
292.7505798619001
 20
-124.5959042188408
 30
0.0
 10
292.235647373074
 20
-125.7426513209888
 30
0.0
 10
291.6337593330023
 20
-126.8627231106082
 30
0.0
 10
290.9547559323426
 20
-127.9371901740322
 30
0.0
 10
290.2102277533838
 20
-128.9479424368265
 30
0.0
 10
289.4132538672484
 20
-129.8781446301236
 30
0.0
 10
288.5781721015661
 20
-130.7126282134382
 30
0.0
 10
287.7203644833091
 20
-131.4382395532013
 30
0.0
 10
286.8560091961986
 20
-132.0442400528703
 30
0.0
 10
286.0017107040232
 20
-132.5227249667508
 30
0.0
 10
285.1738427600627
 20
-132.8692654925535
 30
0.0
 10
284.3883011280269
 20
-133.0824149172014
 30
0.0
 10
283.6567427522456
 20
-133.1669037186217
 30
0.0
 10
282.9906207256844
 20
-133.1207345742201
 30
0.0
 10
282.4727344671893
 20
-132.9981680151078
 30
0.0
 10
282.2036543676109
 20
-132.8431936752575
 30
0.0
 10
282.1071487480365
 20
-132.787612104161
 30
0.0
  0
LWPOLYLINE
  5
107
330
1F
100
AcDbEntity
  8
0
  6
Continuous
 62
     7
370
    25
100
AcDbPolyline
 90
      143
 70
   128
 43
0.0
 10
400.0608091986
 20
-58.0373437633
 10
399.9978283384
 20
-54.7869335508
 10
399.8090090457
 20
-51.6156023224
 10
399.4947209433
 20
-48.5295581079
 10
399.0555792648
 20
-45.5348419836
 10
398.4924436506
 20
-42.6373162471
 10
397.8064164652
 20
-39.842652941
 10
396.9988406391
 20
-37.15632275
 10
396.0712970398
 20
-34.5835842916
 10
395.0256013774
 20
-32.1294738222
 10
393.8638006504
 20
-29.7987953782
 10
392.5881691382
 20
-27.5961113721
 10
391.2012039494
 20
-25.5257336614
 10
389.7056201335
 20
-23.5917151076
 10
388.1043453661
 20
-21.7978416428
 10
386.4005142176
 20
-20.1476248587
 10
384.5974620177
 20
-18.644295132
 10
382.6987183256
 20
-17.2907953013
 10
380.7080000213
 20
-16.0897749061
 10
378.6292040293
 20
-15.0435850001
 10
376.4663996904
 20
-14.1542735493
 10
374.2238207958
 20
-13.4235814226
 10
371.9058572988
 20
-12.8529389842
 10
369.5170467219
 20
-12.4434632933
 10
367.0620652739
 20
-12.195955918
 10
364.5457186964
 20
-12.1109013655
 10
361.9729328559
 20
-12.1884661341
 10
359.3487441015
 20
-12.428498387
 10
356.678289406
 20
-12.8305282501
 10
353.9667963098
 20
-13.3937687307
 10
351.2195726879
 20
-14.1171172594
 10
348.4419963597
 20
-14.9991578473
 10
345.6395045613
 20
-16.0381638587
 10
342.8175833018
 20
-17.2321013904
 10
339.9817566248
 20
-18.5786332536
 10
337.1375757941
 20
-20.075123549
 10
334.2906084272
 20
-21.7186428267
 10
331.4464275965
 20
-23.5059738203
 10
328.6106009194
 20
-25.4336177455
 10
325.78867966
 20
-27.497801149
 10
322.9861878615
 20
-29.6944832946
 10
320.2086115333
 20
-32.0193640739
 10
317.4613879115
 20
-34.4678924237
 10
314.7498948153
 20
-37.0352752348
 10
312.0794401197
 20
-39.7164867346
 10
309.4552513654
 20
-42.5062783258
 10
306.8824655249
 20
-45.3991888603
 10
304.3661189473
 20
-48.3895553299
 10
301.9111374994
 20
-51.4715239518
 10
299.5223269225
 20
-54.6390616278
 10
297.2043634255
 20
-57.885967754
 10
294.9617845308
 20
-61.2058863592
 10
292.798980192
 20
-64.5923185469
 10
290.7201842
 20
-68.0386352171
 10
288.7294658957
 20
-71.538090043
 10
286.8307222036
 20
-75.0838326774
 10
285.0276700036
 20
-78.6689221626
 10
283.3238388552
 20
-82.2863405177
 10
281.7225640877
 20
-85.9290064763
 10
280.2269802718
 20
-89.5897893487
 10
278.8400150831
 20
-93.2615229806
 10
277.5643835709
 20
-96.9370197809
 10
276.4025828438
 20
-100.6090847921
 10
275.3568871815
 20
-104.2705297745
 10
274.4293435822
 20
-107.9141872775
 10
273.621767756
 20
-111.5329246705
 10
272.9357405706
 20
-115.1196581051
 10
272.3726049565
 20
-118.6673663822
 10
271.933463278
 20
-122.1691046962
 10
271.6191751755
 20
-125.61801823
 10
271.4303558829
 20
-129.0073555733
 10
271.3673750226
 20
-132.3304819391
 10
271.4303558829
 20
-135.5808921516
 10
271.6191751755
 20
-138.75222338
 10
271.933463278
 20
-141.8382675946
 10
272.3726049565
 20
-144.8329837188
 10
272.9357405706
 20
-147.7305094554
 10
273.621767756
 20
-150.5251727614
 10
274.4293435822
 20
-153.2115029524
 10
275.3568871815
 20
-155.7842414108
 10
276.4025828438
 20
-158.2383518802
 10
277.5643835709
 20
-160.5690303242
 10
278.8400150831
 20
-162.7717143303
 10
280.2269802718
 20
-164.842092041
 10
281.7225640877
 20
-166.7761105948
 10
283.3238388552
 20
-168.5699840596
 10
285.0276700036
 20
-170.2202008437
 10
286.8307222036
 20
-171.7235305704
 10
288.7294658957
 20
-173.0770304011
 10
290.7201842
 20
-174.2780507964
 10
292.798980192
 20
-175.3242407023
 10
294.9617845308
 20
-176.2135521531
 10
297.2043634255
 20
-176.9442442798
 10
299.5223269225
 20
-177.5148867182
 10
301.9111374994
 20
-177.9243624091
 10
304.3661189473
 20
-178.1718697844
 10
306.8824655249
 20
-178.2569243369
 10
309.4552513654
 20
-178.1793595684
 10
312.0794401197
 20
-177.9393273154
 10
314.7498948153
 20
-177.5372974524
 10
317.4613879115
 20
-176.9740569717
 10
320.2086115333
 20
-176.250708443
 10
322.9861878615
 20
-175.3686678551
 10
325.78867966
 20
-174.3296618437
 10
328.6106009194
 20
-173.1357243121
 10
331.4464275965
 20
-171.7891924488
 10
334.2906084272
 20
-170.2927021534
 10
337.1375757941
 20
-168.6491828758
 10
339.9817566248
 20
-166.8618518821
 10
342.8175833018
 20
-164.9342079569
 10
345.6395045613
 20
-162.8700245535
 10
348.4419963597
 20
-160.6733424078
 10
351.2195726879
 20
-158.3484616285
 10
353.9667963098
 20
-155.8999332787
 10
356.678289406
 20
-153.3325504677
 10
359.3487441015
 20
-150.6513389678
 10
361.9729328559
 20
-147.8615473767
 10
364.5457186964
 20
-144.9686368421
 10
367.0620652739
 20
-141.9782703725
 10
369.5170467219
 20
-138.8963017506
 10
371.9058572988
 20
-135.7287640746
 10
374.2238207958
 20
-132.4818579484
 10
376.4663996904
 20
-129.1619393432
 10
378.6292040293
 20
-125.7755071555
 10
380.7080000213
 20
-122.3291904853
 10
382.6987183256
 20
-118.8297356595
 10
384.5974620177
 20
-115.2839930251
 10
386.4005142176
 20
-111.6989035398
 10
388.1043453661
 20
-108.0814851847
 10
389.7056201335
 20
-104.4388192261
 10
391.2012039494
 20
-100.7780363537
 10
392.5881691382
 20
-97.1063027218
 10
393.8638006504
 20
-93.4308059215
 10
395.0256013774
 20
-89.7587409103
 10
396.0712970398
 20
-86.097295928
 10
396.9988406391
 20
-82.4536384249
 10
397.8064164652
 20
-78.8349010319
 10
398.4924436506
 20
-75.2481675973
 10
399.0555792648
 20
-71.7004593202
 10
399.4947209433
 20
-68.1987210062
 10
399.8090090457
 20
-64.7498074724
 10
399.9978283384
 20
-61.3604701291
 10
400.0608091986
 20
-58.0373437633
  0
ARC
  5
108
330
1F
100
AcDbEntity
  8
0
  6
Continuous
 62
     7
370
    25
100
AcDbCircle
 10
305.9269206322
 20
-148.4145023048
 30
0.0
 40
31.00505265685129
100
AcDbArc
 50
227.4964952368
 51
252.1063872813
  0
ARC
  5
109
330
1F
100
AcDbEntity
  8
0
  6
Continuous
 62
     7
370
    25
100
AcDbCircle
 10
366.9100572728
 20
-42.778351453
 30
0.0
 40
31.01515297481465
100
AcDbArc
 50
47.352476178
 51
72.5746342548
  0
ARC
  5
10A
330
1F
100
AcDbEntity
  8
0
  6
Continuous
 62
     7
370
    25
100
AcDbCircle
 10
378.1326047026
 20
-49.4133014796
 30
0.0
 40
31.15289312214631
100
AcDbArc
 50
47.9967168119
 51
59.9530171925
  0
ARC
  5
10B
330
1F
100
AcDbEntity
  8
0
  6
Continuous
 62
     7
370
    25
100
AcDbCircle
 10
317.2691519336
 20
-154.8584086513
 30
0.0
 40
31.09725628671431
100
AcDbArc
 50
240.0385468893
 51
252.6749906661
  0
LWPOLYLINE
  5
10C
330
1F
100
AcDbEntity
  8
0
  6
Continuous
 62
     7
370
    25
100
AcDbPolyline
 90
       50
 70
   128
 43
0.0
 10
343.4922667037
 20
-147.7290439464
 10
343.4284079978
 20
-148.9144949283
 10
343.2378804383
 20
-150.1542105302
 10
342.9238124825
 20
-151.4278346564
 10
342.4913611175
 20
-152.7144544338
 10
341.9476271828
 20
-153.9929436012
 10
341.3015387745
 20
-155.242309402
 10
340.5637046465
 20
-156.4420372841
 10
339.7462400147
 20
-157.5724277489
 10
338.8625676258
 20
-158.6149198163
 10
337.927197356
 20
-159.5523957953
 10
336.9554879592
 20
-160.3694623562
 10
335.963394877
 20
-161.0527032887
 10
334.9672082502
 20
-161.5908997957
 10
333.9832854357
 20
-161.9752147052
 10
333.027782419
 20
-162.1993375772
 10
332.1163885332
 20
-162.2595883203
 10
331.2640688406
 20
-162.1549776189
 10
330.4848184071
 20
-161.8872231779
 10
329.7914325033
 20
-161.4607215177
 10
329.1952965064
 20
-160.8824757839
 10
328.7061989532
 20
-160.1619807555
 10
328.3321708118
 20
-159.3110669407
 10
328.0793536141
 20
-158.3437063211
 10
327.9518986115
 20
-157.2757829312
 10
327.9518986115
 20
-156.1248320435
 10
328.0793536141
 20
-154.9097522398
 10
328.3321708118
 20
-153.6504950969
 10
328.7061989532
 20
-152.3677375822
 10
329.1952965064
 20
-151.0825425387
 10
329.7914325033
 20
-149.8160128335
 10
330.4848184071
 20
-148.5889448493
 10
331.2640688406
 20
-147.4214870085
 10
332.1163885332
 20
-146.3328089365
 10
333.027782419
 20
-145.3407866973
 10
333.9832854357
 20
-144.4617092685
 10
334.9672082502
 20
-143.7100110772
 10
335.963394877
 20
-143.0980349869
 10
336.9554879592
 20
-142.6358296282
 10
337.927197356
 20
-142.3309844002
 10
338.8625676258
 20
-142.1885048532
 10
339.7462400147
 20
-142.2107304973
 10
340.5637046465
 20
-142.3972963881
 10
341.3015387745
 20
-142.7451391189
 10
341.9476271828
 20
-143.2485471216
 10
342.4913611175
 20
-143.8992544507
 10
342.9238124825
 20
-144.68657651
 10
343.2378804383
 20
-145.5975854928
 10
343.4284079978
 20
-146.617322657
 10
343.4922667037
 20
-147.7290439464
  0
LWPOLYLINE
  5
10D
330
1F
100
AcDbEntity
  8
0
  6
Continuous
 62
     7
370
    25
100
AcDbPolyline
 90
       50
 70
   128
 43
0.0
 10
343.4922667037
 20
-33.658292526
 10
343.4284079978
 20
-34.8437435078
 10
343.2378804383
 20
-36.0834591098
 10
342.9238124825
 20
-37.357083236
 10
342.4913611175
 20
-38.6437030133
 10
341.9476271828
 20
-39.9221921808
 10
341.3015387745
 20
-41.1715579815
 10
340.5637046465
 20
-42.3712858636
 10
339.7462400147
 20
-43.5016763285
 10
338.8625676258
 20
-44.5441683958
 10
337.927197356
 20
-45.4816443748
 10
336.9554879592
 20
-46.2987109357
 10
335.963394877
 20
-46.9819518683
 10
334.9672082502
 20
-47.5201483752
 10
333.9832854357
 20
-47.9044632848
 10
333.027782419
 20
-48.1285861568
 10
332.1163885332
 20
-48.1888368999
 10
331.2640688406
 20
-48.0842261985
 10
330.4848184071
 20
-47.8164717574
 10
329.7914325033
 20
-47.3899700973
 10
329.1952965064
 20
-46.8117243635
 10
328.7061989532
 20
-46.091229335
 10
328.3321708118
 20
-45.2403155203
 10
328.0793536141
 20
-44.2729549007
 10
327.9518986115
 20
-43.2050315107
 10
327.9518986115
 20
-42.054080623
 10
328.0793536141
 20
-40.8390008193
 10
328.3321708118
 20
-39.5797436764
 10
328.7061989532
 20
-38.2969861618
 10
329.1952965064
 20
-37.0117911183
 10
329.7914325033
 20
-35.7452614131
 10
330.4848184071
 20
-34.5181934289
 10
331.2640688406
 20
-33.3507355881
 10
332.1163885332
 20
-32.2620575161
 10
333.027782419
 20
-31.2700352769
 10
333.9832854357
 20
-30.390957848
 10
334.9672082502
 20
-29.6392596568
 10
335.963394877
 20
-29.0272835665
 10
336.9554879592
 20
-28.5650782078
 10
337.927197356
 20
-28.2602329798
 10
338.8625676258
 20
-28.1177534327
 10
339.7462400147
 20
-28.1399790769
 10
340.5637046465
 20
-28.3265449677
 10
341.3015387745
 20
-28.6743876985
 10
341.9476271828
 20
-29.1777957012
 10
342.4913611175
 20
-29.8285030303
 10
342.9238124825
 20
-30.6158250895
 10
343.2378804383
 20
-31.5268340724
 10
343.4284079978
 20
-32.5465712365
 10
343.4922667037
 20
-33.658292526
  0
LWPOLYLINE
  5
10E
330
1F
100
AcDbEntity
  8
0
  6
Continuous
 62
     7
370
    25
100
AcDbPolyline
 90
      103
 70
   128
 43
0.0
 10
368.9481108264
 20
-75.9983222234
 10
368.8850768181
 20
-78.3972596187
 10
368.696213903
 20
-80.8598745396
 10
368.3822385026
 20
-83.3768254442
 10
367.9443416333
 20
-85.9385646755
 10
367.3841843879
 20
-88.5353746793
 10
366.7038916346
 20
-91.1574048656
 10
365.9060439569
 20
-93.7947089759
 10
364.9936678643
 20
-96.4372828124
 10
363.9702243119
 20
-99.0751021872
 10
362.8395955716
 20
-101.6981609481
 10
361.6060705055
 20
-104.2965089347
 10
360.2743282967
 20
-106.860289723
 10
358.8494206994
 20
-109.3797780143
 10
357.3367528764
 20
-111.8454165267
 10
355.7420628948
 20
-114.2478522486
 10
354.0713999599
 20
-116.5779719185
 10
352.3311014685
 20
-118.8269365943
 10
350.5277689688
 20
-120.9862151827
 10
348.6682431188
 20
-123.0476168005
 10
346.7595777368
 20
-125.0033218451
 10
344.8090130445
 20
-126.8459116574
 10
342.8239482018
 20
-128.5683966633
 10
340.8119132397
 20
-130.164242887
 10
338.7805404959
 20
-131.6273967372
 10
336.737535663
 20
-132.9523079701
 10
334.6906485582
 20
-134.1339507438
 10
332.6476437253
 20
-135.1678426823
 10
330.6162709815
 20
-136.0500618794
 10
328.6042360194
 20
-136.7772617756
 10
326.6191711768
 20
-137.3466838525
 10
324.6686064844
 20
-137.7561680971
 10
322.7599411025
 20
-138.0041611955
 10
320.9004152524
 20
-138.0897224249
 10
319.0970827527
 20
-138.0125272222
 10
317.3567842613
 20
-137.7728684152
 10
315.6861213264
 20
-137.3716551121
 10
314.0914313448
 20
-136.8104092521
 10
312.5787635218
 20
-136.0912598331
 10
311.1538559246
 20
-135.2169348352
 10
309.8221137157
 20
-134.1907508726
 10
308.5885886496
 20
-133.0166006124
 10
307.4579599093
 20
-131.698938009
 10
306.4345163569
 20
-130.2427614078
 10
305.5221402643
 20
-128.6535945854
 10
304.7242925867
 20
-126.937465796
 10
304.0439998334
 20
-125.1008849038
 10
303.4838425879
 20
-123.1508186893
 10
303.0459457186
 20
-121.0946644216
 10
302.7319703183
 20
-118.9402217981
 10
302.5431074031
 20
-116.6956633576
 10
302.4800733949
 20
-114.369503479
 10
302.5431074031
 20
-111.9705660837
 10
302.7319703183
 20
-109.5079511628
 10
303.0459457186
 20
-106.9910002582
 10
303.4838425879
 20
-104.4292610269
 10
304.0439998334
 20
-101.8324510231
 10
304.7242925867
 20
-99.2104208368
 10
305.5221402643
 20
-96.5731167265
 10
306.4345163569
 20
-93.9305428901
 10
307.4579599093
 20
-91.2927235152
 10
308.5885886496
 20
-88.6696647543
 10
309.8221137157
 20
-86.0713167678
 10
311.1538559246
 20
-83.5075359795
 10
312.5787635218
 20
-80.9880476881
 10
314.0914313448
 20
-78.5224091757
 10
315.6861213264
 20
-76.1199734538
 10
317.3567842613
 20
-73.7898537839
 10
319.0970827527
 20
-71.5408891081
 10
320.9004152524
 20
-69.3816105197
 10
322.7599411025
 20
-67.320208902
 10
324.6686064844
 20
-65.3645038574
 10
326.6191711768
 20
-63.521914045
 10
328.6042360194
 20
-61.7994290391
 10
330.6162709815
 20
-60.2035828155
 10
332.6476437253
 20
-58.7404289653
 10
334.6906485582
 20
-57.4155177323
 10
336.737535663
 20
-56.2338749586
 10
338.7805404959
 20
-55.1999830201
 10
340.8119132397
 20
-54.317763823
 10
342.8239482018
 20
-53.5905639268
 10
344.8090130445
 20
-53.02114185
 10
346.7595777368
 20
-52.6116576053
 10
348.6682431188
 20
-52.3636645069
 10
350.5277689688
 20
-52.2781032776
 10
352.3311014685
 20
-52.3552984803
 10
354.0713999599
 20
-52.5949572872
 10
355.7420628948
 20
-52.9961705904
 10
357.3367528764
 20
-53.5574164503
 10
358.8494206994
 20
-54.2765658693
 10
360.2743282967
 20
-55.1508908672
 10
361.6060705055
 20
-56.1770748299
 10
362.8395955716
 20
-57.35122509
 10
363.9702243119
 20
-58.6688876934
 10
364.9936678643
 20
-60.1250642947
 10
365.9060439569
 20
-61.714231117
 10
366.7038916346
 20
-63.4303599065
 10
367.3841843879
 20
-65.2669407986
 10
367.9443416333
 20
-67.2170070131
 10
368.3822385026
 20
-69.2731612808
 10
368.696213903
 20
-71.4276039043
 10
368.8850768181
 20
-73.6721623449
 10
368.9481108264
 20
-75.9983222234
  0
LWPOLYLINE
  5
10F
330
1F
100
AcDbEntity
  8
0
  6
Continuous
 62
     7
370
    25
100
AcDbPolyline
 90
       50
 70
   128
 43
0.0
 10
392.8836753696
 20
-62.1806149308
 10
392.8198166637
 20
-63.3660659127
 10
392.6292891042
 20
-64.6057815146
 10
392.3152211484
 20
-65.8794056408
 10
391.8827697834
 20
-67.1660254182
 10
391.3390358486
 20
-68.4445145856
 10
390.6929474404
 20
-69.6938803864
 10
389.9551133123
 20
-70.8936082685
 10
389.1376486806
 20
-72.0239987333
 10
388.2539762917
 20
-73.0664908007
 10
387.3186060219
 20
-74.0039667796
 10
386.3468966251
 20
-74.8210333406
 10
385.3548035428
 20
-75.5042742731
 10
384.358616916
 20
-76.04247078
 10
383.3746941016
 20
-76.4267856896
 10
382.4191910849
 20
-76.6509085616
 10
381.507797199
 20
-76.7111593047
 10
380.6554775065
 20
-76.6065486033
 10
379.876227073
 20
-76.3387941623
 10
379.1828411691
 20
-75.9122925021
 10
378.5867051723
 20
-75.3340467683
 10
378.0976076191
 20
-74.6135517398
 10
377.7235794777
 20
-73.7626379251
 10
377.47076228
 20
-72.7952773055
 10
377.3433072774
 20
-71.7273539155
 10
377.3433072774
 20
-70.5764030278
 10
377.47076228
 20
-69.3613232241
 10
377.7235794777
 20
-68.1020660812
 10
378.0976076191
 20
-66.8193085666
 10
378.5867051723
 20
-65.5341135231
 10
379.1828411691
 20
-64.2675838179
 10
379.876227073
 20
-63.0405158337
 10
380.6554775065
 20
-61.8730579929
 10
381.507797199
 20
-60.7843799209
 10
382.4191910849
 20
-59.7923576817
 10
383.3746941016
 20
-58.9132802529
 10
384.358616916
 20
-58.1615820616
 10
385.3548035428
 20
-57.5496059713
 10
386.3468966251
 20
-57.0874006126
 10
387.3186060219
 20
-56.7825553846
 10
388.2539762917
 20
-56.6400758375
 10
389.1376486806
 20
-56.6623014817
 10
389.9551133123
 20
-56.8488673725
 10
390.6929474404
 20
-57.1967101033
 10
391.3390358486
 20
-57.700118106
 10
391.8827697834
 20
-58.3508254351
 10
392.3152211484
 20
-59.1381474943
 10
392.6292891042
 20
-60.0491564772
 10
392.8198166637
 20
-61.0688936413
 10
392.8836753696
 20
-62.1806149308
  0
LWPOLYLINE
  5
110
330
1F
100
AcDbEntity
  8
0
  6
Continuous
 62
     7
370
    25
100
AcDbPolyline
 90
       50
 70
   128
 43
0.0
 10
294.1008580378
 20
-119.2067215416
 10
294.0369993319
 20
-120.3921725235
 10
293.8464717724
 20
-121.6318881254
 10
293.5324038166
 20
-122.9055122516
 10
293.0999524516
 20
-124.192132029
 10
292.5562185169
 20
-125.4706211964
 10
291.9101301086
 20
-126.7199869972
 10
291.1722959806
 20
-127.9197148793
 10
290.3548313488
 20
-129.0501053441
 10
289.4711589599
 20
-130.0925974115
 10
288.5357886901
 20
-131.0300733904
 10
287.5640792933
 20
-131.8471399514
 10
286.5719862111
 20
-132.5303808839
 10
285.5757995843
 20
-133.0685773909
 10
284.5918767698
 20
-133.4528923004
 10
283.6363737531
 20
-133.6770151724
 10
282.7249798673
 20
-133.7372659155
 10
281.8726601747
 20
-133.6326552141
 10
281.0934097412
 20
-133.3649007731
 10
280.4000238374
 20
-132.9383991129
 10
279.8038878405
 20
-132.3601533791
 10
279.3147902873
 20
-131.6396583507
 10
278.940762146
 20
-130.7887445359
 10
278.6879449483
 20
-129.8213839163
 10
278.5604899456
 20
-128.7534605263
 10
278.5604899456
 20
-127.6025096387
 10
278.6879449483
 20
-126.387429835
 10
278.940762146
 20
-125.128172692
 10
279.3147902873
 20
-123.8454151774
 10
279.8038878405
 20
-122.5602201339
 10
280.4000238374
 20
-121.2936904287
 10
281.0934097412
 20
-120.0666224445
 10
281.8726601747
 20
-118.8991646037
 10
282.7249798673
 20
-117.8104865317
 10
283.6363737531
 20
-116.8184642925
 10
284.5918767698
 20
-115.9393868637
 10
285.5757995843
 20
-115.1876886724
 10
286.5719862111
 20
-114.5757125821
 10
287.5640792933
 20
-114.1135072234
 10
288.5357886901
 20
-113.8086619954
 10
289.4711589599
 20
-113.6661824484
 10
290.3548313488
 20
-113.6884080925
 10
291.1722959806
 20
-113.8749739833
 10
291.9101301086
 20
-114.2228167141
 10
292.5562185169
 20
-114.7262247168
 10
293.0999524516
 20
-115.3769320459
 10
293.5324038166
 20
-116.1642541051
 10
293.8464717724
 20
-117.075263088
 10
294.0369993319
 20
-118.0950002521
 10
294.1008580378
 20
-119.2067215416
  0
ARC
  5
111
330
1F
100
AcDbEntity
  8
0
  6
Continuous
 62
     7
370
    25
100
AcDbCircle
 10
351.6780597894
 20
-69.1633497567
 30
0.0
 40
15.48264979750096
100
AcDbArc
 50
48.8307464342
 51
71.4430691209
  0
ARC
  5
112
330
1F
100
AcDbEntity
  8
0
  6
Continuous
 62
     7
370
    25
100
AcDbCircle
 10
321.1637684143
 20
-122.0213536702
 30
0.0
 40
15.48196941448126
100
AcDbArc
 50
228.5620074174
 51
251.1472083342
  0
LINE
  5
113
330
1F
100
AcDbEntity
  8
0
  6
Continuous
 62
     7
370
    25
100
AcDbLine
 10
380.8130138945
 20
-75.7395522255
 30
0.0
 11
380.8976325289
 21
-75.7867755158
 31
0.0
  0
LINE
  5
114
330
1F
100
AcDbEntity
  8
0
  6
Continuous
 62
     7
370
    25
100
AcDbLine
 10
331.4216052286
 20
-161.2879812411
 30
0.0
 11
331.506223863
 21
-161.3352045314
 31
0.0
  0
LINE
  5
115
330
1F
100
AcDbEntity
  8
0
  6
Continuous
 62
     7
370
    25
100
AcDbLine
 10
331.4216052286
 20
-47.2172298207
 30
0.0
 11
331.506223863
 21
-47.264453111
 31
0.0
  0
LINE
  5
116
330
1F
100
AcDbEntity
  8
0
  6
Continuous
 62
     7
370
    25
100
AcDbLine
 10
282.0301965628
 20
-132.7656588363
 30
0.0
 11
282.1148151971
 21
-132.8128821266
 31
0.0
  0
LWPOLYLINE
  5
117
330
1F
100
AcDbEntity
  8
0
  6
Continuous
 62
     1
370
    25
100
AcDbPolyline
 90
       52
 70
   128
 43
0.0
 10
401.475022761
 20
-58.0373437633
 10
401.4113498034
 20
-61.3969880013
 10
401.2204555735
 20
-64.8235708099
 10
400.9027137556
 20
-68.3103844924
 10
400.4587463443
 20
-71.8506034472
 10
399.8894224267
 20
-75.4372975296
 10
399.1958564811
 20
-79.0634456173
 10
398.3794061953
 20
-82.7219493553
 10
397.4416698092
 20
-86.4056470507
 10
396.3844829857
 20
-90.1073276921
 10
395.2099152177
 20
-93.8197450661
 10
393.9202657768
 20
-97.5356319412
 10
392.5180592123
 20
-101.2477142943
 10
391.0060404095
 20
-104.9487255499
 10
389.387169216
 20
-108.6314208047
 10
387.6646146484
 20
-112.2885910099
 10
385.841748688
 20
-115.9130770829
 10
383.9221396806
 20
-119.4977839221
 10
381.9095453509
 20
-123.0356942955
 10
379.8079054469
 20
-126.5198825774
 10
377.6213340274
 20
-129.9435283056
 10
375.3541114087
 20
-133.2999295329
 10
373.0106757853
 20
-136.5825159462
 10
370.5956145427
 20
-139.7848617285
 10
368.1136552767
 20
-142.9006981375
 10
365.569656539
 20
-145.9239257771
 10
362.9685983266
 20
-148.8486265372
 10
360.3155723332
 20
-151.6690751789
 10
357.6157719816
 20
-154.3797505413
 10
354.874482258
 20
-156.9753463503
 10
352.0970693656
 20
-159.450781605
 10
349.2889702206
 20
-161.8012105248
 10
346.4556818089
 20
-164.0220320347
 10
343.6027504258
 20
-166.1088987722
 10
340.7357608182
 20
-168.0577255977
 10
337.8603252531
 20
-169.8646975913
 10
334.9820725305
 20
-171.5262775203
 10
332.1066369654
 20
-173.039212764
 10
329.2396473579
 20
-174.4005416807
 10
326.3867159747
 20
-175.6075994051
 10
323.553427563
 20
-176.6580230649
 10
320.745328418
 20
-177.5497564065
 10
317.9679155256
 20
-178.2810538201
 10
315.226625802
 20
-178.8504837566
 10
312.5268254505
 20
-179.2569315302
 10
309.873799457
 20
-179.4996015003
 10
307.2727412447
 20
-179.578018629
 10
304.7287425069
 20
-179.492029411
 10
302.2467832409
 20
-179.2418021744
 10
299.8317219983
 20
-178.8278267507
 10
297.488286375
 20
-178.2509135162
 10
296.4006016773
 20
-177.9197990738
  0
LWPOLYLINE
  5
118
330
1F
100
AcDbEntity
  8
0
  6
Continuous
 62
     1
370
    25
100
AcDbPolyline
 90
       16
 70
   128
 43
0.0
 10
387.9223982084
 20
-19.9656084689
 10
389.387169216
 20
-21.3996053558
 10
391.0060404095
 20
-23.2131917158
 10
392.5180592123
 20
-25.1684632207
 10
393.9202657768
 20
-27.2615923349
 10
395.2099152177
 20
-29.4884816597
 10
396.3844829857
 20
-31.8447719547
 10
397.4416698092
 20
-34.325850671
 10
398.3794061953
 20
-36.9268609806
 10
399.1958564811
 20
-39.6427112836
 10
399.8894224267
 20
-42.4680851755
 10
400.4587463443
 20
-45.3974518541
 10
400.9027137556
 20
-48.4250769468
 10
401.2204555735
 20
-51.5450337352
 10
401.4113498034
 20
-54.7512147573
 10
401.475022761
 20
-58.0373437633
  0
LWPOLYLINE
  5
119
330
1F
100
AcDbEntity
  8
0
  6
Continuous
 62
     1
370
    25
100
AcDbPolyline
 90
       16
 70
   128
 43
0.0
 10
412.78873126
 20
-64.5686086579
 10
412.7250583024
 20
-61.2824796519
 10
412.5341640725
 20
-58.0762986298
 10
412.2164222546
 20
-54.9563418414
 10
411.7724548433
 20
-51.9287167487
 10
411.2031309257
 20
-48.99935007
 10
410.5095649801
 20
-46.1739761782
 10
409.6931146943
 20
-43.4581258752
 10
408.7553783082
 20
-40.8571155656
 10
407.6981914847
 20
-38.3760368493
 10
406.5236237167
 20
-36.0197465543
 10
405.2339742758
 20
-33.7928572295
 10
403.8317677113
 20
-31.6997281153
 10
402.3197489084
 20
-29.7444566104
 10
400.700877715
 20
-27.9308702504
 10
398.9792855482
 20
-26.263384685
  0
LWPOLYLINE
  5
11A
330
1F
100
AcDbEntity
  8
0
  6
Continuous
 62
     1
370
    25
100
AcDbPolyline
 90
       52
 70
   128
 43
0.0
 10
308.0086504068
 20
-184.5448105895
 10
308.8019948739
 20
-184.7821784108
 10
311.1454304973
 20
-185.3590916453
 10
313.5604917399
 20
-185.773067069
 10
316.0424510059
 20
-186.0232943056
 10
318.5864497436
 20
-186.1092835235
 10
321.187507956
 20
-186.0308663949
 10
323.8405339495
 20
-185.7881964248
 10
326.540334301
 20
-185.3817486512
 10
329.2816240246
 20
-184.8123187147
 10
332.059036917
 20
-184.0810213011
 10
334.867136062
 20
-183.1892879595
 10
337.7004244737
 20
-182.1388642996
 10
340.5533558568
 20
-180.9318065753
 10
343.4203454644
 20
-179.5704776586
 10
346.2957810295
 20
-178.0575424149
 10
349.1740337521
 20
-176.3959624859
 10
352.0494693172
 20
-174.5889904923
 10
354.9164589248
 20
-172.6401636668
 10
357.7693903079
 20
-170.5532969293
 10
360.6026787196
 20
-168.3324754194
 10
363.4107778646
 20
-165.9820464996
 10
366.188190757
 20
-163.5066112449
 10
368.9294804806
 20
-160.9110154359
 10
371.6292808321
 20
-158.2003400735
 10
374.2823068256
 20
-155.3798914318
 10
376.8833650379
 20
-152.4551906717
 10
379.4273637757
 20
-149.431963032
 10
381.9093230417
 20
-146.316126623
 10
384.3243842843
 20
-143.1137808408
 10
386.6678199076
 20
-139.8311944275
 10
388.9350425264
 20
-136.4747932002
 10
391.1216139459
 20
-133.0511474719
 10
393.2232538499
 20
-129.56695919
 10
395.2358481796
 20
-126.0290488166
 10
397.155457187
 20
-122.4443419775
 10
398.9783231473
 20
-118.8198559045
 10
400.700877715
 20
-115.1626856993
 10
402.3197489084
 20
-111.4799904445
 10
403.8317677113
 20
-107.7789791888
 10
405.2339742758
 20
-104.0668968357
 10
406.5236237167
 20
-100.3510099607
 10
407.6981914847
 20
-96.6385925867
 10
408.7553783082
 20
-92.9369119452
 10
409.6931146943
 20
-89.2532142499
 10
410.5095649801
 20
-85.5947105119
 10
411.2031309257
 20
-81.9685624241
 10
411.7724548433
 20
-78.3818683418
 10
412.2164222546
 20
-74.8416493869
 10
412.5341640725
 20
-71.3548357045
 10
412.7250583024
 20
-67.9282528958
 10
412.78873126
 20
-64.5686086579
  0
LWPOLYLINE
  5
11B
330
1F
100
AcDbEntity
  8
0
  6
Continuous
 62
     1
370
    25
100
AcDbPolyline
 90
       48
 70
   128
 43
0.0
 10
356.6053632901
 20
-54.4856753849
 10
355.5400380296
 20
-54.1676579064
 10
353.8499898643
 20
-53.816992392
 10
352.0911582235
 20
-53.6311942088
 10
350.2704844121
 20
-53.6109966174
 10
348.3951537979
 20
-53.7564793284
 10
346.4725674541
 20
-54.0670681881
 10
344.5103129506
 20
-54.541537444
 10
342.5161344095
 20
-55.1780145829
 10
340.4979019424
 20
-55.9739877202
 10
338.4635805909
 20
-56.9263155136
 10
336.4211988918
 20
-58.0312395604
 10
334.3788171928
 20
-59.2843992301
 10
332.3444958412
 20
-60.6808488741
 10
330.3262633741
 20
-62.2150773436
 10
328.332084833
 20
-63.8810297397
 10
326.3698303295
 20
-65.6721313094
 10
324.4472439857
 20
-67.5813133932
 10
322.5719133715
 20
-69.6010413215
 10
320.7512395601
 20
-71.7233441509
 10
318.9924079193
 20
-73.9398461218
 10
317.302359754
 20
-76.2417997135
 10
315.6877649123
 20
-78.6201201669
 10
314.1549954622
 20
-81.0654213376
 10
312.7101005446
 20
-83.5680527392
 10
311.3587824996
 20
-86.1181376287
 10
310.1063743622
 20
-88.7056119862
 10
308.9578188151
 20
-91.3202642324
 10
307.9176486823
 20
-93.9517755296
 10
306.9899690402
 20
-96.5897605048
 10
306.1784410165
 20
-99.2238082364
 10
305.4862673415
 20
-101.8435233416
 10
304.9161797085
 20
-104.4385670015
 10
304.4704279929
 20
-106.9986977645
 10
304.1507713732
 20
-109.513811964
 10
303.9584713879
 20
-111.9739835934
 10
303.8942869572
 20
-114.369503479
 10
303.9584713879
 20
-116.6909175985
 10
304.1507713732
 20
-118.9290643908
 10
304.4704279929
 20
-121.075110913
 10
304.9161797085
 20
-123.1205876999
 10
305.4862673415
 20
-125.0574221891
 10
306.1784410165
 20
-126.8779705798
 10
306.9899690402
 20
-128.5750479993
 10
307.9176486823
 20
-130.1419568581
 10
308.9578188151
 20
-131.572513283
 10
310.1063743622
 20
-132.8610715213
 10
310.9176599331
 20
-133.6277587098
  0
LWPOLYLINE
  5
11C
330
1F
100
AcDbEntity
  8
0
  6
Continuous
 62
     1
370
    25
100
AcDbPolyline
 90
       26
 70
   128
 43
0.0
 10
390.7823087728
 20
-58.4015235321
 10
390.7283603561
 20
-58.3717711712
 10
390.0070217573
 20
-58.0839542768
 10
389.2108337378
 20
-57.9566553215
 10
388.3540042915
 20
-57.992145958
 10
387.4518235604
 20
-58.1897928551
 10
386.5203909808
 20
-58.5460689993
 10
385.5763279893
 20
-59.0546166343
 10
384.6364814123
 20
-59.7063607156
 10
383.7176228342
 20
-60.4896708545
 10
382.8361493082
 20
-61.3905688631
 10
382.0077907501
 20
-62.3929781951
 10
381.2473292381
 20
-63.4790108322
 10
380.5683352258
 20
-64.6292864962
 10
379.9829253776
 20
-65.8232784908
 10
379.501546346
 20
-67.0396800003
 10
379.1327883512
 20
-68.2567843112
 10
378.8832318883
 20
-69.4528721681
 10
378.7573302985
 20
-70.6065993549
 10
378.7573302985
 20
-71.6973775827
 10
378.8832318883
 20
-72.705741888
 10
379.1327883512
 20
-73.613697986
 10
379.501546346
 20
-74.4050433786
 10
379.9829253776
 20
-75.0656564885
 10
380.5683352258
 20
-75.5837486592
 10
380.8130138945
 20
-75.7395522255
  0
LWPOLYLINE
  5
11D
330
1F
100
AcDbEntity
  8
0
  6
Continuous
 62
     1
370
    25
100
AcDbPolyline
 90
       26
 70
   128
 43
0.0
 10
341.390900107
 20
-143.9499525477
 10
341.3369516902
 20
-143.9202001868
 10
340.6156130914
 20
-143.6323832925
 10
339.8194250719
 20
-143.5050843371
 10
338.9625956257
 20
-143.5405749736
 10
338.0604148945
 20
-143.7382218707
 10
337.128982315
 20
-144.0944980149
 10
336.1849193235
 20
-144.60304565
 10
335.2450727464
 20
-145.2547897312
 10
334.3262141684
 20
-146.0380998702
 10
333.4447406423
 20
-146.9389978788
 10
332.6163820842
 20
-147.9414072107
 10
331.8559205722
 20
-149.0274398478
 10
331.17692656
 20
-150.1777155119
 10
330.5915167117
 20
-151.3717075064
 10
330.1101376801
 20
-152.588109016
 10
329.7413796853
 20
-153.8052133268
 10
329.4918232225
 20
-155.0013011837
 10
329.3659216326
 20
-156.1550283706
 10
329.3659216326
 20
-157.2458065983
 10
329.4918232225
 20
-158.2541709036
 10
329.7413796853
 20
-159.1621270016
 10
330.1101376801
 20
-159.9534723942
 10
330.5915167117
 20
-160.6140855042
 10
331.17692656
 20
-161.1321776748
 10
331.4216052286
 20
-161.2879812411
  0
LWPOLYLINE
  5
11E
330
1F
100
AcDbEntity
  8
0
  6
Continuous
 62
     1
370
    25
100
AcDbPolyline
 90
       44
 70
   128
 43
0.0
 10
319.739384363
 20
-137.4083258813
 10
319.2313571813
 20
-136.6732217527
 10
318.3036775392
 20
-135.1063128939
 10
317.4921495155
 20
-133.4092354744
 10
316.7999758405
 20
-131.5886870837
 10
316.2298882074
 20
-129.6518525944
 10
315.7841364919
 20
-127.6063758075
 10
315.4644798721
 20
-125.4603292854
 10
315.2721798869
 20
-123.2221824931
 10
315.2079954562
 20
-120.9007683736
 10
315.2721798869
 20
-118.5052484879
 10
315.4644798721
 20
-116.0450768586
 10
315.7841364919
 20
-113.5299626591
 10
316.2298882074
 20
-110.9698318961
 10
316.7999758405
 20
-108.3747882361
 10
317.4921495155
 20
-105.755073131
 10
318.3036775392
 20
-103.1210253993
 10
319.2313571813
 20
-100.4830404242
 10
320.2715273141
 20
-97.851529127
 10
321.4200828612
 20
-95.2368768808
 10
322.6724909986
 20
-92.6494025233
 10
324.0238090436
 20
-90.0993176337
 10
325.4687039612
 20
-87.5966862322
 10
327.0014734113
 20
-85.1513850615
 10
328.616068253
 20
-82.7730646081
 10
330.3061164183
 20
-80.4711110164
 10
332.0649480591
 20
-78.2546090455
 10
333.8856218705
 20
-76.132306216
 10
335.7609524847
 20
-74.1125782877
 10
337.6835388285
 20
-72.203396204
 10
339.645793332
 20
-70.4122946343
 10
341.6399718731
 20
-68.7463422381
 10
343.6582043402
 20
-67.2121137687
 10
345.6925256917
 20
-65.8156641247
 10
347.7349073908
 20
-64.562504455
 10
349.7772890899
 20
-63.4575804082
 10
351.8116104414
 20
-62.5052526148
 10
353.8298429085
 20
-61.7092794775
 10
355.8240214496
 20
-61.0728023386
 10
357.7862759531
 20
-60.5983330826
 10
359.7088622969
 20
-60.287744223
 10
361.5841929111
 20
-60.142261512
 10
363.4048667225
 20
-60.1624591034
 10
364.3364911308
 20
-60.2393947886
  0
LWPOLYLINE
  5
11F
330
1F
100
AcDbEntity
  8
0
  6
Continuous
 62
     1
370
    25
100
AcDbPolyline
 90
       26
 70
   128
 43
0.0
 10
341.390900107
 20
-29.8792011273
 10
341.3369516902
 20
-29.8494487664
 10
340.6156130914
 20
-29.561631872
 10
339.8194250719
 20
-29.4343329167
 10
338.9625956257
 20
-29.4698235532
 10
338.0604148945
 20
-29.6674704503
 10
337.128982315
 20
-30.0237465945
 10
336.1849193235
 20
-30.5322942295
 10
335.2450727465
 20
-31.1840383108
 10
334.3262141684
 20
-31.9673484497
 10
333.4447406423
 20
-32.8682464583
 10
332.6163820842
 20
-33.8706557903
 10
331.8559205722
 20
-34.9566884274
 10
331.17692656
 20
-36.1069640914
 10
330.5915167117
 20
-37.3009560859
 10
330.1101376801
 20
-38.5173575955
 10
329.7413796853
 20
-39.7344619064
 10
329.4918232225
 20
-40.9305497633
 10
329.3659216326
 20
-42.0842769501
 10
329.3659216326
 20
-43.1750551778
 10
329.4918232225
 20
-44.1834194832
 10
329.7413796853
 20
-45.0913755812
 10
330.1101376801
 20
-45.8827209738
 10
330.5915167117
 20
-46.5433340837
 10
331.17692656
 20
-47.0614262544
 10
331.4216052286
 20
-47.2172298207
  0
LWPOLYLINE
  5
120
330
1F
100
AcDbEntity
  8
0
  6
Continuous
 62
     1
370
    25
100
AcDbPolyline
 90
       26
 70
   128
 43
0.0
 10
291.9994914411
 20
-115.4276301429
 10
291.9455430243
 20
-115.397877782
 10
291.2242044255
 20
-115.1100608876
 10
290.428016406
 20
-114.9827619323
 10
289.5711869598
 20
-115.0182525688
 10
288.6690062286
 20
-115.2158994659
 10
287.7375736491
 20
-115.5721756101
 10
286.7935106576
 20
-116.0807232451
 10
285.8536640806
 20
-116.7324673264
 10
284.9348055025
 20
-117.5157774653
 10
284.0533319764
 20
-118.416675474
 10
283.2249734183
 20
-119.4190848059
 10
282.4645119063
 20
-120.505117443
 10
281.7855178941
 20
-121.655393107
 10
281.2001080458
 20
-122.8493851016
 10
280.7187290142
 20
-124.0657866111
 10
280.3499710194
 20
-125.282890922
 10
280.1004145566
 20
-126.4789787789
 10
279.9745129668
 20
-127.6327059657
 10
279.9745129668
 20
-128.7234841935
 10
280.1004145566
 20
-129.7318484988
 10
280.3499710194
 20
-130.6398045968
 10
280.7187290142
 20
-131.4311499894
 10
281.2001080458
 20
-132.0917630993
 10
281.7855178941
 20
-132.60985527
 10
282.0301965628
 20
-132.7656588363
  0
ENDSEC
  0
SECTION
  2
OBJECTS
  0
DICTIONARY
  5
C
330
0
100
AcDbDictionary
281
     1
  3
ACAD_GROUP
350
D
  3
ACAD_LAYOUT
350
1A
  3
ACAD_MLINESTYLE
350
17
  3
ACAD_PLOTSETTINGS
350
19
  3
ACAD_PLOTSTYLENAME
350
E
  3
ACAD_SCALELIST
350
47
  3
DWGPROPS
350
121
  0
DICTIONARY
  5
D
102
{ACAD_REACTORS
330
C
102
}
330
C
100
AcDbDictionary
281
     1
  0
DICTIONARY
  5
1A
102
{ACAD_REACTORS
330
C
102
}
330
C
100
AcDbDictionary
281
     1
  3
Layout1
350
1E
  3
Layout2
350
26
  3
Model
350
22
  0
DICTIONARY
  5
17
102
{ACAD_REACTORS
330
C
102
}
330
C
100
AcDbDictionary
281
     1
  3
Standard
350
18
  0
DICTIONARY
  5
19
102
{ACAD_REACTORS
330
C
102
}
330
C
100
AcDbDictionary
281
     1
  0
ACDBDICTIONARYWDFLT
  5
E
102
{ACAD_REACTORS
330
C
102
}
330
C
100
AcDbDictionary
281
     1
  3
Normal
350
F
100
AcDbDictionaryWithDefault
340
F
  0
DICTIONARY
  5
47
102
{ACAD_REACTORS
330
C
102
}
330
C
100
AcDbDictionary
281
     1
  3
A0
350
48
  3
A1
350
49
  3
A2
350
4A
  3
A3
350
4B
  3
A4
350
4C
  3
A5
350
4D
  3
A6
350
4E
  3
A7
350
4F
  3
A8
350
50
  3
A9
350
51
  3
B0
350
52
  3
B1
350
53
  3
B2
350
54
  3
B3
350
55
  3
B4
350
56
  3
B5
350
57
  3
B6
350
58
  3
B7
350
59
  3
B8
350
5A
  3
B9
350
5B
  3
C0
350
5C
  3
C1
350
5D
  3
C2
350
5E
  3
C3
350
5F
  3
C4
350
60
  3
C5
350
61
  3
C6
350
62
  3
C7
350
63
  3
C8
350
64
  3
C9
350
65
  3
D0
350
66
  3
D1
350
67
  3
D2
350
68
  0
XRECORD
  5
121
102
{ACAD_REACTORS
330
C
102
}
330
C
100
AcDbXrecord
280
     1
  1
DWGPROPS COOKIE
  2

  3

  4

  6

  7

  8
b.kav
  9

300
=
301
=
302
=
303
=
304
=
305
=
306
=
307
=
308
=
309
=
 40
0.0
 41
2459741.463665185
 42
2459741.463666782
  1

 90
        0
  0
LAYOUT
  5
1E
102
{ACAD_REACTORS
330
1A
102
}
330
1A
100
AcDbPlotSettings
  1

  2
none_device
  4

  6

 40
0.0
 41
0.0
 42
0.0
 43
0.0
 44
0.0
 45
0.0
 46
0.0
 47
0.0
 48
0.0
 49
0.0
140
0.0
141
0.0
142
1.0
143
1.0
 70
   688
 72
     1
 73
     0
 74
     5
  7

 75
    16
147
1.0
148
0.0
149
0.0
100
AcDbLayout
  1
Layout1
 70
     1
 71
     1
 10
0.0
 20
0.0
 11
420.0
 21
297.0
 12
0.0
 22
0.0
 32
0.0
 14
1.0000000000E+20
 24
1.0000000000E+20
 34
1.0000000000E+20
 15
-1.0000000000E+20
 25
-1.0000000000E+20
 35
-1.0000000000E+20
146
0.0
 13
0.0
 23
0.0
 33
0.0
 16
1.0
 26
0.0
 36
0.0
 17
0.0
 27
1.0
 37
0.0
 76
     0
330
1B
  0
LAYOUT
  5
26
102
{ACAD_REACTORS
330
1A
102
}
330
1A
100
AcDbPlotSettings
  1

  2
none_device
  4

  6

 40
0.0
 41
0.0
 42
0.0
 43
0.0
 44
0.0
 45
0.0
 46
0.0
 47
0.0
 48
0.0
 49
0.0
140
0.0
141
0.0
142
1.0
143
1.0
 70
   688
 72
     1
 73
     0
 74
     5
  7

 75
    16
147
1.0
148
0.0
149
0.0
100
AcDbLayout
  1
Layout2
 70
     1
 71
     2
 10
0.0
 20
0.0
 11
0.0
 21
0.0
 12
0.0
 22
0.0
 32
0.0
 14
0.0
 24
0.0
 34
0.0
 15
0.0
 25
0.0
 35
0.0
146
0.0
 13
0.0
 23
0.0
 33
0.0
 16
1.0
 26
0.0
 36
0.0
 17
0.0
 27
1.0
 37
0.0
 76
     0
330
23
  0
LAYOUT
  5
22
102
{ACAD_REACTORS
330
1A
102
}
330
1A
100
AcDbPlotSettings
  1

  2
none_device
  4
Letter_(8.50_x_11.00_Inches)
  6

 40
6.35
 41
6.35
 42
6.35000508
 43
6.35000508
 44
215.9
 45
279.4
 46
0.0
 47
0.0
 48
0.0
 49
0.0
140
0.0
141
0.0
142
1.0
143
1.0
 70
  1712
 72
     1
 73
     0
 74
     0
  7

 75
     0
147
1.0
148
0.0
149
0.0
100
AcDbLayout
  1
Model
 70
     1
 71
     0
 10
0.0
 20
0.0
 11
279.4
 21
215.9
 12
0.0
 22
0.0
 32
0.0
 14
0.0
 24
0.0
 34
0.0
 15
279.4
 25
215.9
 35
0.0
146
0.0
 13
0.0
 23
0.0
 33
0.0
 16
1.0
 26
0.0
 36
0.0
 17
0.0
 27
1.0
 37
0.0
 76
     0
330
1F
331
29
  0
MLINESTYLE
  5
18
102
{ACAD_REACTORS
330
17
102
}
330
17
100
AcDbMlineStyle
  2
Standard
 70
     0
  3

 62
   256
 51
90.0
 52
90.0
 71
     2
 49
0.5
 62
   256
  6
BYLAYER
 49
-0.5
 62
   256
  6
BYLAYER
  0
ACDBPLACEHOLDER
  5
F
102
{ACAD_REACTORS
330
E
102
}
330
E
  0
SCALE
  5
48
102
{ACAD_REACTORS
330
47
102
}
330
47
100
AcDbScale
 70
     0
300
1:1
140
1.0
141
1.0
290
     1
  0
SCALE
  5
49
102
{ACAD_REACTORS
330
47
102
}
330
47
100
AcDbScale
 70
     0
300
1:2
140
1.0
141
2.0
290
     0
  0
SCALE
  5
4A
102
{ACAD_REACTORS
330
47
102
}
330
47
100
AcDbScale
 70
     0
300
1:4
140
1.0
141
4.0
290
     0
  0
SCALE
  5
4B
102
{ACAD_REACTORS
330
47
102
}
330
47
100
AcDbScale
 70
     0
300
1:5
140
1.0
141
5.0
290
     0
  0
SCALE
  5
4C
102
{ACAD_REACTORS
330
47
102
}
330
47
100
AcDbScale
 70
     0
300
1:8
140
1.0
141
8.0
290
     0
  0
SCALE
  5
4D
102
{ACAD_REACTORS
330
47
102
}
330
47
100
AcDbScale
 70
     0
300
1:10
140
1.0
141
10.0
290
     0
  0
SCALE
  5
4E
102
{ACAD_REACTORS
330
47
102
}
330
47
100
AcDbScale
 70
     0
300
1:16
140
1.0
141
16.0
290
     0
  0
SCALE
  5
4F
102
{ACAD_REACTORS
330
47
102
}
330
47
100
AcDbScale
 70
     0
300
1:20
140
1.0
141
20.0
290
     0
  0
SCALE
  5
50
102
{ACAD_REACTORS
330
47
102
}
330
47
100
AcDbScale
 70
     0
300
1:30
140
1.0
141
30.0
290
     0
  0
SCALE
  5
51
102
{ACAD_REACTORS
330
47
102
}
330
47
100
AcDbScale
 70
     0
300
1:40
140
1.0
141
40.0
290
     0
  0
SCALE
  5
52
102
{ACAD_REACTORS
330
47
102
}
330
47
100
AcDbScale
 70
     0
300
1:50
140
1.0
141
50.0
290
     0
  0
SCALE
  5
53
102
{ACAD_REACTORS
330
47
102
}
330
47
100
AcDbScale
 70
     0
300
1:100
140
1.0
141
100.0
290
     0
  0
SCALE
  5
54
102
{ACAD_REACTORS
330
47
102
}
330
47
100
AcDbScale
 70
     0
300
2:1
140
2.0
141
1.0
290
     0
  0
SCALE
  5
55
102
{ACAD_REACTORS
330
47
102
}
330
47
100
AcDbScale
 70
     0
300
4:1
140
4.0
141
1.0
290
     0
  0
SCALE
  5
56
102
{ACAD_REACTORS
330
47
102
}
330
47
100
AcDbScale
 70
     0
300
8:1
140
8.0
141
1.0
290
     0
  0
SCALE
  5
57
102
{ACAD_REACTORS
330
47
102
}
330
47
100
AcDbScale
 70
     0
300
10:1
140
10.0
141
1.0
290
     0
  0
SCALE
  5
58
102
{ACAD_REACTORS
330
47
102
}
330
47
100
AcDbScale
 70
     0
300
100:1
140
100.0
141
1.0
290
     0
  0
SCALE
  5
59
102
{ACAD_REACTORS
330
47
102
}
330
47
100
AcDbScale
 70
     0
300
1/128" = 1'-0"
140
0.0078125
141
12.0
290
     0
  0
SCALE
  5
5A
102
{ACAD_REACTORS
330
47
102
}
330
47
100
AcDbScale
 70
     0
300
1/64" = 1'-0"
140
0.015625
141
12.0
290
     0
  0
SCALE
  5
5B
102
{ACAD_REACTORS
330
47
102
}
330
47
100
AcDbScale
 70
     0
300
1/32" = 1'-0"
140
0.03125
141
12.0
290
     0
  0
SCALE
  5
5C
102
{ACAD_REACTORS
330
47
102
}
330
47
100
AcDbScale
 70
     0
300
1/16" = 1'-0"
140
0.0625
141
12.0
290
     0
  0
SCALE
  5
5D
102
{ACAD_REACTORS
330
47
102
}
330
47
100
AcDbScale
 70
     0
300
3/32" = 1'-0"
140
0.09375
141
12.0
290
     0
  0
SCALE
  5
5E
102
{ACAD_REACTORS
330
47
102
}
330
47
100
AcDbScale
 70
     0
300
1/8" = 1'-0"
140
0.125
141
12.0
290
     0
  0
SCALE
  5
5F
102
{ACAD_REACTORS
330
47
102
}
330
47
100
AcDbScale
 70
     0
300
3/16" = 1'-0"
140
0.1875
141
12.0
290
     0
  0
SCALE
  5
60
102
{ACAD_REACTORS
330
47
102
}
330
47
100
AcDbScale
 70
     0
300
1/4" = 1'-0"
140
0.25
141
12.0
290
     0
  0
SCALE
  5
61
102
{ACAD_REACTORS
330
47
102
}
330
47
100
AcDbScale
 70
     0
300
3/8" = 1'-0"
140
0.375
141
12.0
290
     0
  0
SCALE
  5
62
102
{ACAD_REACTORS
330
47
102
}
330
47
100
AcDbScale
 70
     0
300
1/2" = 1'-0"
140
0.5
141
12.0
290
     0
  0
SCALE
  5
63
102
{ACAD_REACTORS
330
47
102
}
330
47
100
AcDbScale
 70
     0
300
3/4" = 1'-0"
140
0.75
141
12.0
290
     0
  0
SCALE
  5
64
102
{ACAD_REACTORS
330
47
102
}
330
47
100
AcDbScale
 70
     0
300
1" = 1'-0"
140
1.0
141
12.0
290
     0
  0
SCALE
  5
65
102
{ACAD_REACTORS
330
47
102
}
330
47
100
AcDbScale
 70
     0
300
1-1/2" = 1'-0"
140
1.5
141
12.0
290
     0
  0
SCALE
  5
66
102
{ACAD_REACTORS
330
47
102
}
330
47
100
AcDbScale
 70
     0
300
3" = 1'-0"
140
3.0
141
12.0
290
     0
  0
SCALE
  5
67
102
{ACAD_REACTORS
330
47
102
}
330
47
100
AcDbScale
 70
     0
300
6" = 1'-0"
140
6.0
141
12.0
290
     0
  0
SCALE
  5
68
102
{ACAD_REACTORS
330
47
102
}
330
47
100
AcDbScale
 70
     0
300
1'-0" = 1'-0"
140
12.0
141
12.0
290
     0
  0
ENDSEC
  0
EOF
